  0
SECTION
  2
HEADER
  9
$ACADVER
  1
AC1014
  9
$ACADMAINTVER
 70
     0
  9
$DWGCODEPAGE
  3
ANSI_1252
  9
$INSBASE
 10
0.0
 20
0.0
 30
0.0
  9
$EXTMIN
 10
2.914662
 20
5.256154
 30
0.0
  9
$EXTMAX
 10
21.087316
 20
11.248233
 30
0.0
  9
$LIMMIN
 10
0.0
 20
0.0
  9
$LIMMAX
 10
12.0
 20
9.0
  9
$ORTHOMODE
 70
     1
  9
$REGENMODE
 70
     1
  9
$FILLMODE
 70
     1
  9
$QTEXTMODE
 70
     0
  9
$MIRRTEXT
 70
     1
  9
$DRAGMODE
 70
     2
  9
$LTSCALE
 40
0.25
  9
$OSMODE
 70
   545
  9
$ATTMODE
 70
     1
  9
$TEXTSIZE
 40
0.2
  9
$TRACEWID
 40
0.05
  9
$TEXTSTYLE
  7
STANDARD
  9
$CLAYER
  8
0
  9
$CELTYPE
  6
BYLAYER
  9
$CECOLOR
 62
   256
  9
$CELTSCALE
 40
1.0
  9
$DELOBJ
 70
     1
  9
$DISPSILH
 70
     0
  9
$DIMSCALE
 40
1.0
  9
$DIMASZ
 40
0.18
  9
$DIMEXO
 40
0.063
  9
$DIMDLI
 40
0.38
  9
$DIMRND
 40
0.0
  9
$DIMDLE
 40
0.0
  9
$DIMEXE
 40
0.18
  9
$DIMTP
 40
0.0
  9
$DIMTM
 40
0.0
  9
$DIMTXT
 40
0.18
  9
$DIMCEN
 40
0.09
  9
$DIMTSZ
 40
0.0
  9
$DIMTOL
 70
     0
  9
$DIMLIM
 70
     0
  9
$DIMTIH
 70
     1
  9
$DIMTOH
 70
     1
  9
$DIMSE1
 70
     0
  9
$DIMSE2
 70
     0
  9
$DIMTAD
 70
     0
  9
$DIMZIN
 70
     0
  9
$DIMBLK
  1

  9
$DIMASO
 70
     1
  9
$DIMSHO
 70
     1
  9
$DIMPOST
  1

  9
$DIMAPOST
  1

  9
$DIMALT
 70
     0
  9
$DIMALTD
 70
     2
  9
$DIMALTF
 40
25.4
  9
$DIMLFAC
 40
1.0
  9
$DIMTOFL
 70
     0
  9
$DIMTVP
 40
0.0
  9
$DIMTIX
 70
     1
  9
$DIMSOXD
 70
     0
  9
$DIMSAH
 70
     0
  9
$DIMBLK1
  1

  9
$DIMBLK2
  1

  9
$DIMSTYLE
  2
FTI
  9
$DIMCLRD
 70
     0
  9
$DIMCLRE
 70
     0
  9
$DIMCLRT
 70
     0
  9
$DIMTFAC
 40
1.0
  9
$DIMGAP
 40
0.09
  9
$DIMJUST
 70
     0
  9
$DIMSD1
 70
     0
  9
$DIMSD2
 70
     0
  9
$DIMTOLJ
 70
     1
  9
$DIMTZIN
 70
     0
  9
$DIMALTZ
 70
     0
  9
$DIMALTTZ
 70
     0
  9
$DIMFIT
 70
     5
  9
$DIMUPT
 70
     0
  9
$DIMUNIT
 70
     2
  9
$DIMDEC
 70
     3
  9
$DIMTDEC
 70
     3
  9
$DIMALTU
 70
     2
  9
$DIMALTTD
 70
     2
  9
$DIMTXSTY
  7
STANDARD
  9
$DIMAUNIT
 70
     0
  9
$LUNITS
 70
     2
  9
$LUPREC
 70
     3
  9
$SKETCHINC
 40
0.1
  9
$FILLETRAD
 40
0.0
  9
$AUNITS
 70
     0
  9
$AUPREC
 70
     0
  9
$MENU
  1
acad
  9
$ELEVATION
 40
0.0
  9
$PELEVATION
 40
0.0
  9
$THICKNESS
 40
0.0
  9
$LIMCHECK
 70
     0
  9
$BLIPMODE
 70
     1
  9
$CHAMFERA
 40
0.0
  9
$CHAMFERB
 40
0.0
  9
$CHAMFERC
 40
0.0
  9
$CHAMFERD
 40
0.0
  9
$SKPOLY
 70
     0
  9
$TDCREATE
 40
2450651.427543403
  9
$TDUPDATE
 40
2451360.566570370
  9
$TDINDWG
 40
0.2514657407
  9
$TDUSRTIMER
 40
0.2514657407
  9
$USRTIMER
 70
     1
  9
$ANGBASE
 50
0.0
  9
$ANGDIR
 70
     0
  9
$PDMODE
 70
     2
  9
$PDSIZE
 40
0.0
  9
$PLINEWID
 40
0.0
  9
$COORDS
 70
     1
  9
$SPLFRAME
 70
     0
  9
$SPLINETYPE
 70
     6
  9
$SPLINESEGS
 70
     8
  9
$ATTDIA
 70
     0
  9
$ATTREQ
 70
     1
  9
$HANDLING
 70
     1
  9
$HANDSEED
  5
72B
  9
$SURFTAB1
 70
     6
  9
$SURFTAB2
 70
     6
  9
$SURFTYPE
 70
     6
  9
$SURFU
 70
     6
  9
$SURFV
 70
     6
  9
$UCSNAME
  2

  9
$UCSORG
 10
0.0
 20
0.0
 30
0.0
  9
$UCSXDIR
 10
1.0
 20
0.0
 30
0.0
  9
$UCSYDIR
 10
0.0
 20
1.0
 30
0.0
  9
$PUCSNAME
  2

  9
$PUCSORG
 10
0.0
 20
0.0
 30
0.0
  9
$PUCSXDIR
 10
1.0
 20
0.0
 30
0.0
  9
$PUCSYDIR
 10
0.0
 20
1.0
 30
0.0
  9
$USERI1
 70
     0
  9
$USERI2
 70
     0
  9
$USERI3
 70
     0
  9
$USERI4
 70
     0
  9
$USERI5
 70
     0
  9
$USERR1
 40
0.0
  9
$USERR2
 40
0.0
  9
$USERR3
 40
0.0
  9
$USERR4
 40
0.0
  9
$USERR5
 40
0.0
  9
$WORLDVIEW
 70
     1
  9
$SHADEDGE
 70
     3
  9
$SHADEDIF
 70
    70
  9
$TILEMODE
 70
     1
  9
$MAXACTVP
 70
    16
  9
$PINSBASE
 10
0.0
 20
0.0
 30
0.0
  9
$PLIMCHECK
 70
     0
  9
$PEXTMIN
 10
1.000000E+20
 20
1.000000E+20
 30
1.000000E+20
  9
$PEXTMAX
 10
-1.000000E+20
 20
-1.000000E+20
 30
-1.000000E+20
  9
$PLIMMIN
 10
0.0
 20
0.0
  9
$PLIMMAX
 10
12.0
 20
9.0
  9
$UNITMODE
 70
     0
  9
$VISRETAIN
 70
     0
  9
$PLINEGEN
 70
     0
  9
$PSLTSCALE
 70
     1
  9
$TREEDEPTH
 70
  3020
  9
$PICKSTYLE
 70
     1
  9
$CMLSTYLE
  2
STANDARD
  9
$CMLJUST
 70
     0
  9
$CMLSCALE
 40
1.0
  9
$PROXYGRAPHICS
 70
     1
  9
$MEASUREMENT
 70
     0
  0
ENDSEC
  0
SECTION
  2
CLASSES
  0
CLASS
  1
DICTIONARYVAR
  2
AcDbDictionaryVar
  3
"AutoCAD"
 90
        0
280
     0
281
     0
  0
CLASS
  1
LWPOLYLINE
  2
AcDbPolyline
  3
"AutoCAD"
 90
        0
280
     0
281
     1
  0
CLASS
  1
HATCH
  2
AcDbHatch
  3
"ACAD_SEDONA"
 90
        0
280
     0
281
     1
  0
ENDSEC
  0
SECTION
  2
TABLES
  0
TABLE
  2
VPORT
  5
8
100
AcDbSymbolTable
 70
     1
  0
VPORT
  5
724
100
AcDbSymbolTableRecord
100
AcDbViewportTableRecord
  2
*ACTIVE
 70
     0
 10
0.0
 20
0.0
 11
1.0
 21
1.0
 12
11.010551
 22
5.768531
 13
0.0
 23
0.0
 14
1.0
 24
1.0
 15
0.0
 25
0.0
 16
0.0
 26
0.0
 36
1.0
 17
0.0
 27
0.0
 37
0.0
 40
17.488396
 41
1.605903
 42
50.0
 43
0.0
 44
0.0
 50
0.0
 51
0.0
 71
     0
 72
 20000
 73
     1
 74
     0
 75
     0
 76
     0
 77
     0
 78
     0
  0
ENDTAB
  0
TABLE
  2
LTYPE
  5
5
100
AcDbSymbolTable
 70
    26
  0
LTYPE
  5
11
100
AcDbSymbolTableRecord
100
AcDbLinetypeTableRecord
  2
BYBLOCK
 70
     0
  3

 72
    65
 73
     0
 40
0.0
  0
LTYPE
  5
12
100
AcDbSymbolTableRecord
100
AcDbLinetypeTableRecord
  2
BYLAYER
 70
     0
  3

 72
    65
 73
     0
 40
0.0
  0
LTYPE
  5
13
100
AcDbSymbolTableRecord
100
AcDbLinetypeTableRecord
  2
CONTINUOUS
 70
     0
  3
Solid line
 72
    65
 73
     0
 40
0.0
  0
LTYPE
  5
35
100
AcDbSymbolTableRecord
100
AcDbLinetypeTableRecord
  2
HIDDEN
 70
     0
  3
__ __ __ __ __ __ __ __ __ __ __ __ __ __ __ __
 72
    65
 73
     2
 40
0.375
 49
0.25
 74
     0
 49
-0.125
 74
     0
  0
LTYPE
  5
36
100
AcDbSymbolTableRecord
100
AcDbLinetypeTableRecord
  2
DASHED
 70
     0
  3
__ __ __ __ __ __ __ __ __ __ __ __ __ __ __ __
 72
    65
 73
     2
 40
0.75
 49
0.5
 74
     0
 49
-0.25
 74
     0
  0
LTYPE
  5
37
100
AcDbSymbolTableRecord
100
AcDbLinetypeTableRecord
  2
CENTER
 70
     0
  3
____ _ ____ _ ____ _ ____ _ ____ _ ____ _ ____ 
 72
    65
 73
     4
 40
2.0
 49
1.25
 74
     0
 49
-0.25
 74
     0
 49
0.25
 74
     0
 49
-0.25
 74
     0
  0
LTYPE
  5
38
100
AcDbSymbolTableRecord
100
AcDbLinetypeTableRecord
  2
PHANTOM
 70
     0
  3
______  __  __  ______  __  __  ______  __  __ 
 72
    65
 73
     6
 40
2.5
 49
1.25
 74
     0
 49
-0.25
 74
     0
 49
0.25
 74
     0
 49
-0.25
 74
     0
 49
0.25
 74
     0
 49
-0.25
 74
     0
  0
LTYPE
  5
39
100
AcDbSymbolTableRecord
100
AcDbLinetypeTableRecord
  2
DOT
 70
     0
  3
. . . . . . . . . . . . . . . . . . . . . . . .
 72
    65
 73
     2
 40
0.25
 49
0.0
 74
     0
 49
-0.25
 74
     0
  0
LTYPE
  5
3A
100
AcDbSymbolTableRecord
100
AcDbLinetypeTableRecord
  2
DASHDOT
 70
     0
  3
__ . __ . __ . __ . __ . __ . __ . __ . __ . __
 72
    65
 73
     4
 40
1.0
 49
0.5
 74
     0
 49
-0.25
 74
     0
 49
0.0
 74
     0
 49
-0.25
 74
     0
  0
LTYPE
  5
3B
100
AcDbSymbolTableRecord
100
AcDbLinetypeTableRecord
  2
BORDER
 70
     0
  3
__ __ . __ __ . __ __ . __ __ . __ __ . __ __ .
 72
    65
 73
     6
 40
1.75
 49
0.5
 74
     0
 49
-0.25
 74
     0
 49
0.5
 74
     0
 49
-0.25
 74
     0
 49
0.0
 74
     0
 49
-0.25
 74
     0
  0
LTYPE
  5
3C
100
AcDbSymbolTableRecord
100
AcDbLinetypeTableRecord
  2
DIVIDE
 70
     0
  3
____ . . ____ . . ____ . . ____ . . ____ . . __
 72
    65
 73
     6
 40
1.25
 49
0.5
 74
     0
 49
-0.25
 74
     0
 49
0.0
 74
     0
 49
-0.25
 74
     0
 49
0.0
 74
     0
 49
-0.25
 74
     0
  0
LTYPE
  5
3D
100
AcDbSymbolTableRecord
100
AcDbLinetypeTableRecord
  2
DOTS
 70
     0
  3
close
 72
    65
 73
     2
 40
0.1
 49
0.05
 74
     0
 49
-0.05
 74
     0
  0
LTYPE
  5
3E
100
AcDbSymbolTableRecord
100
AcDbLinetypeTableRecord
  2
HIDDEN2
 70
     0
  3
_ _ _ _ _ _ _ _ _ _ _ _ _ _ _ _ _ _ _ _ _ _ _ _
 72
    65
 73
     2
 40
0.1875
 49
0.125
 74
     0
 49
-0.0625
 74
     0
  0
LTYPE
  5
3F
100
AcDbSymbolTableRecord
100
AcDbLinetypeTableRecord
  2
BORDER2
 70
     0
  3
__.__.__.__.__.__.__.__.__.__.__.__.__.__.__.__
 72
    65
 73
     6
 40
0.875
 49
0.25
 74
     0
 49
-0.125
 74
     0
 49
0.25
 74
     0
 49
-0.125
 74
     0
 49
0.0
 74
     0
 49
-0.125
 74
     0
  0
LTYPE
  5
40
100
AcDbSymbolTableRecord
100
AcDbLinetypeTableRecord
  2
BORDERX2
 70
     0
  3
____  ____  .  ____  ____  .  ____  ____  .  __
 72
    65
 73
     6
 40
3.5
 49
1.0
 74
     0
 49
-0.5
 74
     0
 49
1.0
 74
     0
 49
-0.5
 74
     0
 49
0.0
 74
     0
 49
-0.5
 74
     0
  0
LTYPE
  5
41
100
AcDbSymbolTableRecord
100
AcDbLinetypeTableRecord
  2
CENTER2
 70
     0
  3
___ _ ___ _ ___ _ ___ _ ___ _ ___ _ ___ _ ___ _
 72
    65
 73
     4
 40
1.125
 49
0.75
 74
     0
 49
-0.125
 74
     0
 49
0.125
 74
     0
 49
-0.125
 74
     0
  0
LTYPE
  5
42
100
AcDbSymbolTableRecord
100
AcDbLinetypeTableRecord
  2
CENTERX2
 70
     0
  3
________  __  ________  __  ________  __  _____
 72
    65
 73
     4
 40
4.0
 49
2.5
 74
     0
 49
-0.5
 74
     0
 49
0.5
 74
     0
 49
-0.5
 74
     0
  0
LTYPE
  5
43
100
AcDbSymbolTableRecord
100
AcDbLinetypeTableRecord
  2
DASHDOT2
 70
     0
  3
_._._._._._._._._._._._._._._._._._._._._._._._
 72
    65
 73
     4
 40
0.5
 49
0.25
 74
     0
 49
-0.125
 74
     0
 49
0.0
 74
     0
 49
-0.125
 74
     0
  0
LTYPE
  5
44
100
AcDbSymbolTableRecord
100
AcDbLinetypeTableRecord
  2
DASHDOTX2
 70
     0
  3
____  .  ____  .  ____  .  ____  .  ____  .  __
 72
    65
 73
     4
 40
2.0
 49
1.0
 74
     0
 49
-0.5
 74
     0
 49
0.0
 74
     0
 49
-0.5
 74
     0
  0
LTYPE
  5
45
100
AcDbSymbolTableRecord
100
AcDbLinetypeTableRecord
  2
DASHED2
 70
     0
  3
_ _ _ _ _ _ _ _ _ _ _ _ _ _ _ _ _ _ _ _ _ _ _ _
 72
    65
 73
     2
 40
0.375
 49
0.25
 74
     0
 49
-0.125
 74
     0
  0
LTYPE
  5
46
100
AcDbSymbolTableRecord
100
AcDbLinetypeTableRecord
  2
DASHEDX2
 70
     0
  3
____  ____  ____  ____  ____  ____  ____  ____ 
 72
    65
 73
     2
 40
1.5
 49
1.0
 74
     0
 49
-0.5
 74
     0
  0
LTYPE
  5
47
100
AcDbSymbolTableRecord
100
AcDbLinetypeTableRecord
  2
DIVIDE2
 70
     0
  3
__..__..__..__..__..__..__..__..__..__..__..__.
 72
    65
 73
     6
 40
0.625
 49
0.25
 74
     0
 49
-0.125
 74
     0
 49
0.0
 74
     0
 49
-0.125
 74
     0
 49
0.0
 74
     0
 49
-0.125
 74
     0
  0
LTYPE
  5
48
100
AcDbSymbolTableRecord
100
AcDbLinetypeTableRecord
  2
DIVIDEX2
 70
     0
  3
________  .  .  ________  .  .  ________  .  . 
 72
    65
 73
     6
 40
2.5
 49
1.0
 74
     0
 49
-0.5
 74
     0
 49
0.0
 74
     0
 49
-0.5
 74
     0
 49
0.0
 74
     0
 49
-0.5
 74
     0
  0
LTYPE
  5
49
100
AcDbSymbolTableRecord
100
AcDbLinetypeTableRecord
  2
DOT2
 70
     0
  3
...............................................
 72
    65
 73
     2
 40
0.125
 49
0.0
 74
     0
 49
-0.125
 74
     0
  0
LTYPE
  5
4A
100
AcDbSymbolTableRecord
100
AcDbLinetypeTableRecord
  2
DOTX2
 70
     0
  3
.  .  .  .  .  .  .  .  .  .  .  .  .  .  .  . 
 72
    65
 73
     2
 40
0.5
 49
0.0
 74
     0
 49
-0.5
 74
     0
  0
LTYPE
  5
4B
100
AcDbSymbolTableRecord
100
AcDbLinetypeTableRecord
  2
HIDDENX2
 70
     0
  3
____ ____ ____ ____ ____ ____ ____ ____ ____ __
 72
    65
 73
     2
 40
0.75
 49
0.5
 74
     0
 49
-0.25
 74
     0
  0
LTYPE
  5
4C
100
AcDbSymbolTableRecord
100
AcDbLinetypeTableRecord
  2
PHANTOM2
 70
     0
  3
___ _ _ ___ _ _ ___ _ _ ___ _ _ ___ _ _ ___ _ _
 72
    65
 73
     6
 40
1.25
 49
0.625
 74
     0
 49
-0.125
 74
     0
 49
0.125
 74
     0
 49
-0.125
 74
     0
 49
0.125
 74
     0
 49
-0.125
 74
     0
  0
LTYPE
  5
4D
100
AcDbSymbolTableRecord
100
AcDbLinetypeTableRecord
  2
PHANTOMX2
 70
     0
  3
____________    ____    ____    ____________   
 72
    65
 73
     6
 40
5.0
 49
2.5
 74
     0
 49
-0.5
 74
     0
 49
0.5
 74
     0
 49
-0.5
 74
     0
 49
0.5
 74
     0
 49
-0.5
 74
     0
  0
ENDTAB
  0
TABLE
  2
LAYER
  5
2
100
AcDbSymbolTable
 70
     9
  0
LAYER
  5
E
100
AcDbSymbolTableRecord
100
AcDbLayerTableRecord
  2
0
 70
     0
 62
     7
  6
CONTINUOUS
  0
LAYER
  5
52
100
AcDbSymbolTableRecord
100
AcDbLayerTableRecord
  2
DEFPOINTS
 70
     0
 62
     7
  6
CONTINUOUS
  0
LAYER
  5
53
100
AcDbSymbolTableRecord
100
AcDbLayerTableRecord
  2
TEXT
 70
     0
 62
     4
  6
CONTINUOUS
  0
LAYER
  5
54
100
AcDbSymbolTableRecord
100
AcDbLayerTableRecord
  2
OBJ
 70
     0
 62
     6
  6
CONTINUOUS
  0
LAYER
  5
55
100
AcDbSymbolTableRecord
100
AcDbLayerTableRecord
  2
HID
 70
     0
 62
    15
  6
HIDDEN
  0
LAYER
  5
56
100
AcDbSymbolTableRecord
100
AcDbLayerTableRecord
  2
CTR
 70
     0
 62
     3
  6
CENTER
  0
LAYER
  5
57
100
AcDbSymbolTableRecord
100
AcDbLayerTableRecord
  2
DIM
 70
     0
 62
     1
  6
CONTINUOUS
  0
LAYER
  5
58
100
AcDbSymbolTableRecord
100
AcDbLayerTableRecord
  2
HATCH
 70
     0
 62
   253
  6
CONTINUOUS
  0
LAYER
  5
59
100
AcDbSymbolTableRecord
100
AcDbLayerTableRecord
  2
BORDER
 70
     0
 62
     5
  6
CONTINUOUS
  0
ENDTAB
  0
TABLE
  2
STYLE
  5
3
100
AcDbSymbolTable
 70
     5
  0
STYLE
  5
F
100
AcDbSymbolTableRecord
100
AcDbTextStyleTableRecord
  2
STANDARD
 70
     0
 40
0.0
 41
1.0
 50
0.0
 71
     0
 42
0.2
  3
txt
  4

  0
STYLE
  5
31
100
AcDbSymbolTableRecord
100
AcDbTextStyleTableRecord
  2
TXT
 70
     0
 40
0.18
 41
1.0
 50
0.0
 71
     0
 42
0.18
  3
TXT.shx
  4

  0
STYLE
  5
32
100
AcDbSymbolTableRecord
100
AcDbTextStyleTableRecord
  2
ROMANS
 70
     0
 40
0.1
 41
0.77
 50
0.0
 71
     0
 42
0.1
  3
ROMANS.shx
  4

  0
STYLE
  5
33
100
AcDbSymbolTableRecord
100
AcDbTextStyleTableRecord
  2
ROMANC
 70
     0
 40
0.0
 41
1.0
 50
0.0
 71
     0
 42
0.0
  3
ROMANC
  4

  0
STYLE
  5
34
100
AcDbSymbolTableRecord
100
AcDbTextStyleTableRecord
  2
ROMANT
 70
     0
 40
0.1
 41
1.0
 50
0.0
 71
     0
 42
0.1
  3
romant
  4

  0
ENDTAB
  0
TABLE
  2
VIEW
  5
6
100
AcDbSymbolTable
 70
     1
  0
VIEW
  5
722
100
AcDbSymbolTableRecord
100
AcDbViewTableRecord
  2
MAN
 70
     0
 40
7.00142
 10
12.102395
 20
8.056874
 41
19.137605
 11
0.0
 21
0.0
 31
1.0
 12
0.0
 22
0.0
 32
0.0
 42
50.0
 43
0.0
 44
0.0
 50
0.0
 71
     0
  0
ENDTAB
  0
TABLE
  2
UCS
  5
7
100
AcDbSymbolTable
 70
     0
  0
ENDTAB
  0
TABLE
  2
APPID
  5
9
100
AcDbSymbolTable
 70
     1
  0
APPID
  5
10
100
AcDbSymbolTableRecord
100
AcDbRegAppTableRecord
  2
ACAD
 70
     0
  0
ENDTAB
  0
TABLE
  2
DIMSTYLE
  5
A
100
AcDbSymbolTable
 70
     2
  0
DIMSTYLE
105
50
100
AcDbSymbolTableRecord
100
AcDbDimStyleTableRecord
  2
DEF
 70
     0
  3

  4

  5

  6

  7

 40
1.0
 41
0.18
 42
0.063
 43
0.38
 44
0.18
 45
0.0
 46
0.0
 47
0.0
 48
0.0
140
0.18
141
0.09
142
0.0
143
25.4
144
1.0
145
0.0
146
1.0
147
0.09
 71
     0
 72
     0
 73
     1
 74
     1
 75
     0
 76
     0
 77
     0
 78
     0
170
     0
171
     2
172
     0
173
     0
174
     0
175
     0
176
     0
177
     0
178
     0
270
     2
271
     3
272
     3
273
     2
274
     2
340
F
275
     0
280
     0
281
     0
282
     0
283
     1
284
     0
285
     0
286
     0
287
     5
288
     0
  0
DIMSTYLE
105
51
100
AcDbSymbolTableRecord
100
AcDbDimStyleTableRecord
  2
FTI
 70
     0
  3

  4

  5

  6

  7

 40
1.0
 41
0.18
 42
0.063
 43
0.38
 44
0.18
 45
0.0
 46
0.0
 47
0.0
 48
0.0
140
0.18
141
0.09
142
0.0
143
25.4
144
1.0
145
0.0
146
1.0
147
0.09
 71
     0
 72
     0
 73
     1
 74
     1
 75
     0
 76
     0
 77
     0
 78
     0
170
     0
171
     2
172
     0
173
     0
174
     1
175
     0
176
     0
177
     0
178
     0
270
     2
271
     3
272
     3
273
     2
274
     2
340
F
275
     0
280
     0
281
     0
282
     0
283
     1
284
     0
285
     0
286
     0
287
     5
288
     0
  0
ENDTAB
  0
TABLE
  2
BLOCK_RECORD
  5
1
100
AcDbSymbolTable
 70
     0
  0
BLOCK_RECORD
  5
17
100
AcDbSymbolTableRecord
100
AcDbBlockTableRecord
  2
*MODEL_SPACE
  0
BLOCK_RECORD
  5
14
100
AcDbSymbolTableRecord
100
AcDbBlockTableRecord
  2
*PAPER_SPACE
  0
ENDTAB
  0
ENDSEC
  0
SECTION
  2
BLOCKS
  0
BLOCK
  5
5C
100
AcDbEntity
  8
0
100
AcDbBlockBegin
  2
*MODEL_SPACE
 70
     0
 10
0.0
 20
0.0
 30
0.0
  3
*MODEL_SPACE
  1

  0
ENDBLK
  5
5D
100
AcDbEntity
  8
0
100
AcDbBlockEnd
  0
BLOCK
  5
5A
100
AcDbEntity
 67
     1
  8
0
100
AcDbBlockBegin
  2
*PAPER_SPACE
 70
     0
 10
0.0
 20
0.0
 30
0.0
  3
*PAPER_SPACE
  1

  0
ENDBLK
  5
5B
100
AcDbEntity
 67
     1
  8
0
100
AcDbBlockEnd
  0
ENDSEC
  0
SECTION
  2
ENTITIES
  0
LINE
  5
132
100
AcDbEntity
  8
OBJ
 62
     7
100
AcDbLine
 10
5.394992
 20
8.639154
 30
0.0
 11
6.394992
 21
8.639154
 31
0.0
  0
LINE
  5
133
100
AcDbEntity
  8
OBJ
 62
     7
100
AcDbLine
 10
5.394992
 20
9.639154
 30
0.0
 11
6.394992
 21
9.639154
 31
0.0
  0
LINE
  5
134
100
AcDbEntity
  8
OBJ
 62
     7
100
AcDbLine
 10
17.493975
 20
9.639154
 30
0.0
 11
17.493975
 21
8.639154
 31
0.0
  0
LINE
  5
135
100
AcDbEntity
  8
OBJ
 62
     7
100
AcDbLine
 10
11.118975
 20
9.639154
 30
0.0
 11
11.118975
 21
8.639154
 31
0.0
  0
LINE
  5
136
100
AcDbEntity
  8
OBJ
 62
     7
100
AcDbLine
 10
6.394992
 20
9.639154
 30
0.0
 11
6.394992
 21
8.639154
 31
0.0
  0
LINE
  5
137
100
AcDbEntity
  8
OBJ
 62
     7
100
AcDbLine
 10
11.118975
 20
9.639154
 30
0.0
 11
17.493975
 21
9.639154
 31
0.0
  0
LINE
  5
139
100
AcDbEntity
  8
OBJ
 62
     7
100
AcDbLine
 10
11.118975
 20
8.639154
 30
0.0
 11
17.493975
 21
8.639154
 31
0.0
  0
CIRCLE
  5
13C
100
AcDbEntity
  8
OBJ
 62
     7
100
AcDbCircle
 10
5.944992
 20
9.039154
 30
0.0
 40
0.1695
  0
CIRCLE
  5
13E
100
AcDbEntity
  8
OBJ
 62
     7
100
AcDbCircle
 10
11.618975
 20
9.339154
 30
0.0
 40
0.1105
  0
CIRCLE
  5
13F
100
AcDbEntity
  8
OBJ
 62
     7
100
AcDbCircle
 10
11.618975
 20
9.339154
 30
0.0
 40
0.172
  0
CIRCLE
  5
144
100
AcDbEntity
  8
OBJ
 62
     7
100
AcDbCircle
 10
16.993975
 20
9.339154
 30
0.0
 40
0.172
  0
CIRCLE
  5
145
100
AcDbEntity
  8
OBJ
 62
     7
100
AcDbCircle
 10
16.993975
 20
9.339154
 30
0.0
 40
0.1105
  0
SOLID
  5
15A
100
AcDbEntity
  8
DIM
 62
     7
100
AcDbTrace
 10
17.224545
 20
9.607452
 30
0.0
 11
17.171403
 21
9.635306
 31
0.0
 12
17.114412
 22
9.461951
 32
0.0
 13
17.114412
 23
9.461951
 33
0.0
  0
LINE
  5
15B
100
AcDbEntity
  8
DIM
 62
     7
100
AcDbLine
 10
17.197974
 20
9.621379
 30
0.0
 11
17.788428
 21
10.731469
 31
0.0
  0
LINE
  5
15C
100
AcDbEntity
  8
DIM
 62
     7
100
AcDbLine
 10
17.788428
 20
10.731469
 30
0.0
 11
17.968428
 21
10.731469
 31
0.0
  0
TEXT
  5
15D
100
AcDbEntity
  8
DIM
 62
     7
100
AcDbText
 10
18.087316
 20
10.617878
 30
0.0
 40
0.2
  1
C DIA. (2 PLACES)
 11
18.087316
 21
10.717878
 31
0.0
100
AcDbText
 73
     2
  0
LINE
  5
30D
100
AcDbEntity
  8
CTR
  6
CENTER2
 62
     7
100
AcDbLine
 10
5.775492
 20
9.039154
 30
0.0
 11
6.114492
 21
9.039154
 31
0.0
  0
LINE
  5
31F
100
AcDbEntity
  8
OBJ
 62
     7
100
AcDbLine
 10
5.394992
 20
9.639154
 30
0.0
 11
5.394992
 21
8.639154
 31
0.0
  0
TEXT
  5
334
100
AcDbEntity
  8
DIM
100
AcDbText
 10
3.261541
 20
10.005519
 30
0.0
 40
0.18
  1

 72
     2
 11
3.261541
 21
10.095519
 31
0.0
100
AcDbText
 73
     2
  0
TEXT
  5
338
100
AcDbEntity
  8
DIM
100
AcDbText
 10
15.155999
 20
10.3306
 30
0.0
 40
0.18
  1

 11
15.155999
 21
10.4206
 31
0.0
100
AcDbText
 73
     2
  0
CIRCLE
  5
3A4
100
AcDbEntity
  8
OBJ
 62
     7
100
AcDbCircle
 10
5.944992
 20
9.039154
 30
0.0
 40
0.15625
  0
LINE
  5
3AA
100
AcDbEntity
  8
HID
  6
HIDDEN2
 62
     7
100
AcDbLine
 10
5.741992
 20
9.039154
 30
0.0
 11
6.147992
 21
9.039154
 31
0.0
  0
LINE
  5
43D
100
AcDbEntity
  8
0
 62
     7
100
AcDbLine
 10
11.699475
 20
8.639154
 30
0.0
 11
11.699475
 21
8.289154
 31
0.0
  0
LINE
  5
43E
100
AcDbEntity
  8
0
 62
     7
100
AcDbLine
 10
12.038475
 20
8.639154
 30
0.0
 11
12.038475
 21
8.289154
 31
0.0
  0
LINE
  5
43F
100
AcDbEntity
  8
OBJ
 62
     7
100
AcDbLine
 10
11.611475
 20
8.289154
 30
0.0
 11
12.126475
 21
8.289154
 31
0.0
  0
LINE
  5
440
100
AcDbEntity
  8
0
 62
     7
100
AcDbLine
 10
12.126475
 20
8.289154
 30
0.0
 11
12.126475
 21
8.149154
 31
0.0
  0
LINE
  5
441
100
AcDbEntity
  8
0
 62
     7
100
AcDbLine
 10
11.611475
 20
8.289154
 30
0.0
 11
11.611475
 21
8.149154
 31
0.0
  0
LINE
  5
442
100
AcDbEntity
  8
OBJ
 62
     7
100
AcDbLine
 10
11.378475
 20
8.149154
 30
0.0
 11
12.359475
 21
8.149154
 31
0.0
  0
LINE
  5
445
100
AcDbEntity
  8
OBJ
 62
     7
100
AcDbLine
 10
11.378475
 20
7.039154
 30
0.0
 11
12.359475
 21
7.039154
 31
0.0
  0
LINE
  5
446
100
AcDbEntity
  8
OBJ
 62
     7
100
AcDbLine
 10
11.378475
 20
7.999154
 30
0.0
 11
12.359475
 21
7.999154
 31
0.0
  0
LINE
  5
447
100
AcDbEntity
  8
OBJ
 62
     7
100
AcDbLine
 10
11.378475
 20
7.189154
 30
0.0
 11
12.359475
 21
7.189154
 31
0.0
  0
LINE
  5
448
100
AcDbEntity
  8
OBJ
 62
     7
100
AcDbLine
 10
11.448475
 20
7.939154
 30
0.0
 11
12.289475
 21
7.939154
 31
0.0
  0
LINE
  5
449
100
AcDbEntity
  8
OBJ
 62
     7
100
AcDbLine
 10
11.448475
 20
7.249154
 30
0.0
 11
12.289475
 21
7.249154
 31
0.0
  0
LINE
  5
44A
100
AcDbEntity
  8
0
 62
     7
100
AcDbLine
 10
12.359475
 20
8.149154
 30
0.0
 11
12.359475
 21
7.999154
 31
0.0
  0
LINE
  5
44B
100
AcDbEntity
  8
0
 62
     7
100
AcDbLine
 10
11.378475
 20
8.149154
 30
0.0
 11
11.378475
 21
7.999154
 31
0.0
  0
LINE
  5
44C
100
AcDbEntity
  8
0
 62
     7
100
AcDbLine
 10
12.289475
 20
7.939154
 30
0.0
 11
12.289475
 21
7.249154
 31
0.0
  0
LINE
  5
44D
100
AcDbEntity
  8
0
 62
     7
100
AcDbLine
 10
11.448475
 20
7.939154
 30
0.0
 11
11.448475
 21
7.249154
 31
0.0
  0
LINE
  5
44E
100
AcDbEntity
  8
0
 62
     7
100
AcDbLine
 10
11.378475
 20
7.999154
 30
0.0
 11
11.448475
 21
7.939154
 31
0.0
  0
LINE
  5
44F
100
AcDbEntity
  8
0
 62
     7
100
AcDbLine
 10
12.359475
 20
7.999154
 30
0.0
 11
12.289475
 21
7.939154
 31
0.0
  0
LINE
  5
450
100
AcDbEntity
  8
0
 62
     7
100
AcDbLine
 10
12.359475
 20
7.189154
 30
0.0
 11
12.289475
 21
7.249154
 31
0.0
  0
LINE
  5
451
100
AcDbEntity
  8
0
 62
     7
100
AcDbLine
 10
11.378475
 20
7.189154
 30
0.0
 11
11.448475
 21
7.249154
 31
0.0
  0
LINE
  5
452
100
AcDbEntity
  8
0
 62
     7
100
AcDbLine
 10
12.359475
 20
7.189154
 30
0.0
 11
12.359475
 21
7.039154
 31
0.0
  0
LINE
  5
453
100
AcDbEntity
  8
0
 62
     7
100
AcDbLine
 10
11.378475
 20
7.189154
 30
0.0
 11
11.378475
 21
7.039154
 31
0.0
  0
LINE
  5
454
100
AcDbEntity
  8
OBJ
 62
     7
100
AcDbLine
 10
11.555475
 20
6.704154
 30
0.0
 11
12.182475
 21
6.704154
 31
0.0
  0
LINE
  5
455
100
AcDbEntity
  8
0
 62
     7
100
AcDbLine
 10
12.126475
 20
7.039154
 30
0.0
 11
12.126475
 21
6.704154
 31
0.0
  0
LINE
  5
456
100
AcDbEntity
  8
0
 62
     7
100
AcDbLine
 10
11.611475
 20
7.039154
 30
0.0
 11
11.611475
 21
6.704154
 31
0.0
  0
LINE
  5
457
100
AcDbEntity
  8
0
 62
     7
100
AcDbLine
 10
12.182475
 20
6.704154
 30
0.0
 11
12.182475
 21
6.401154
 31
0.0
  0
LINE
  5
458
100
AcDbEntity
  8
0
 62
     7
100
AcDbLine
 10
11.555475
 20
6.704154
 30
0.0
 11
11.555475
 21
6.401154
 31
0.0
  0
LINE
  5
459
100
AcDbEntity
  8
OBJ
 62
     7
100
AcDbLine
 10
11.555475
 20
6.401154
 30
0.0
 11
12.182475
 21
6.401154
 31
0.0
  0
LINE
  5
45B
100
AcDbEntity
  8
0
 62
     7
100
AcDbLine
 10
12.032475
 20
6.704154
 30
0.0
 11
12.032475
 21
6.401154
 31
0.0
  0
LINE
  5
45C
100
AcDbEntity
  8
0
 62
     7
100
AcDbLine
 10
11.705475
 20
6.704154
 30
0.0
 11
11.705475
 21
6.401154
 31
0.0
  0
LINE
  5
45D
100
AcDbEntity
  8
OBJ
 62
     7
100
AcDbLine
 10
11.448475
 20
7.399154
 30
0.0
 11
12.289475
 21
7.399154
 31
0.0
  0
LINE
  5
45E
100
AcDbEntity
  8
OBJ
 62
     7
100
AcDbLine
 10
11.448475
 20
7.789154
 30
0.0
 11
12.289475
 21
7.789154
 31
0.0
  0
LINE
  5
47A
100
AcDbEntity
  8
0
 62
     7
100
AcDbLine
 10
13.073475
 20
7.939154
 30
0.0
 11
13.073475
 21
7.249154
 31
0.0
  0
LINE
  5
47B
100
AcDbEntity
  8
0
 62
     7
100
AcDbLine
 10
13.914475
 20
7.939154
 30
0.0
 11
13.914475
 21
7.249154
 31
0.0
  0
LINE
  5
47C
100
AcDbEntity
  8
OBJ
 62
     7
100
AcDbLine
 10
13.073475
 20
7.399154
 30
0.0
 11
13.914475
 21
7.399154
 31
0.0
  0
LINE
  5
47D
100
AcDbEntity
  8
OBJ
 62
     7
100
AcDbLine
 10
13.180475
 20
6.704154
 30
0.0
 11
13.807475
 21
6.704154
 31
0.0
  0
LINE
  5
47E
100
AcDbEntity
  8
OBJ
 62
     7
100
AcDbLine
 10
13.180475
 20
6.401154
 30
0.0
 11
13.807475
 21
6.401154
 31
0.0
  0
LINE
  5
47F
100
AcDbEntity
  8
OBJ
 62
     7
100
AcDbLine
 10
13.003475
 20
7.189154
 30
0.0
 11
13.984475
 21
7.189154
 31
0.0
  0
LINE
  5
480
100
AcDbEntity
  8
OBJ
 62
     7
100
AcDbLine
 10
13.073475
 20
7.249154
 30
0.0
 11
13.914475
 21
7.249154
 31
0.0
  0
LINE
  5
481
100
AcDbEntity
  8
OBJ
 62
     7
100
AcDbLine
 10
13.003475
 20
7.039154
 30
0.0
 11
13.984475
 21
7.039154
 31
0.0
  0
LINE
  5
482
100
AcDbEntity
  8
0
 62
     7
100
AcDbLine
 10
13.236475
 20
7.039154
 30
0.0
 11
13.236475
 21
6.704154
 31
0.0
  0
LINE
  5
483
100
AcDbEntity
  8
0
 62
     7
100
AcDbLine
 10
13.330475
 20
6.704154
 30
0.0
 11
13.330475
 21
6.401154
 31
0.0
  0
LINE
  5
484
100
AcDbEntity
  8
0
 62
     7
100
AcDbLine
 10
13.180475
 20
6.704154
 30
0.0
 11
13.180475
 21
6.401154
 31
0.0
  0
LINE
  5
485
100
AcDbEntity
  8
0
 62
     7
100
AcDbLine
 10
13.003475
 20
7.189154
 30
0.0
 11
13.073475
 21
7.249154
 31
0.0
  0
LINE
  5
486
100
AcDbEntity
  8
0
 62
     7
100
AcDbLine
 10
13.003475
 20
7.189154
 30
0.0
 11
13.003475
 21
7.039154
 31
0.0
  0
LINE
  5
487
100
AcDbEntity
  8
0
 62
     7
100
AcDbLine
 10
13.751475
 20
7.039154
 30
0.0
 11
13.751475
 21
6.704154
 31
0.0
  0
LINE
  5
488
100
AcDbEntity
  8
0
 62
     7
100
AcDbLine
 10
13.657475
 20
6.704154
 30
0.0
 11
13.657475
 21
6.401154
 31
0.0
  0
LINE
  5
489
100
AcDbEntity
  8
0
 62
     7
100
AcDbLine
 10
13.807475
 20
6.704154
 30
0.0
 11
13.807475
 21
6.401154
 31
0.0
  0
LINE
  5
48A
100
AcDbEntity
  8
0
 62
     7
100
AcDbLine
 10
13.984475
 20
7.189154
 30
0.0
 11
13.914475
 21
7.249154
 31
0.0
  0
LINE
  5
48B
100
AcDbEntity
  8
0
 62
     7
100
AcDbLine
 10
13.984475
 20
7.189154
 30
0.0
 11
13.984475
 21
7.039154
 31
0.0
  0
LINE
  5
48C
100
AcDbEntity
  8
OBJ
 62
     7
100
AcDbLine
 10
13.073475
 20
7.789154
 30
0.0
 11
13.914475
 21
7.789154
 31
0.0
  0
LINE
  5
48D
100
AcDbEntity
  8
OBJ
 62
     7
100
AcDbLine
 10
13.073475
 20
7.939154
 30
0.0
 11
13.914475
 21
7.939154
 31
0.0
  0
LINE
  5
48E
100
AcDbEntity
  8
OBJ
 62
     7
100
AcDbLine
 10
13.003475
 20
7.999154
 30
0.0
 11
13.984475
 21
7.999154
 31
0.0
  0
LINE
  5
48F
100
AcDbEntity
  8
OBJ
 62
     7
100
AcDbLine
 10
13.003475
 20
8.149154
 30
0.0
 11
13.984475
 21
8.149154
 31
0.0
  0
LINE
  5
490
100
AcDbEntity
  8
OBJ
 62
     7
100
AcDbLine
 10
13.236475
 20
8.289154
 30
0.0
 11
13.751475
 21
8.289154
 31
0.0
  0
LINE
  5
491
100
AcDbEntity
  8
0
 62
     7
100
AcDbLine
 10
13.003475
 20
8.149154
 30
0.0
 11
13.003475
 21
7.999154
 31
0.0
  0
LINE
  5
492
100
AcDbEntity
  8
0
 62
     7
100
AcDbLine
 10
13.003475
 20
7.999154
 30
0.0
 11
13.073475
 21
7.939154
 31
0.0
  0
LINE
  5
493
100
AcDbEntity
  8
0
 62
     7
100
AcDbLine
 10
13.324475
 20
8.639154
 30
0.0
 11
13.324475
 21
8.289154
 31
0.0
  0
LINE
  5
494
100
AcDbEntity
  8
0
 62
     7
100
AcDbLine
 10
13.236475
 20
8.289154
 30
0.0
 11
13.236475
 21
8.149154
 31
0.0
  0
LINE
  5
495
100
AcDbEntity
  8
0
 62
     7
100
AcDbLine
 10
13.984475
 20
8.149154
 30
0.0
 11
13.984475
 21
7.999154
 31
0.0
  0
LINE
  5
496
100
AcDbEntity
  8
0
 62
     7
100
AcDbLine
 10
13.984475
 20
7.999154
 30
0.0
 11
13.914475
 21
7.939154
 31
0.0
  0
LINE
  5
497
100
AcDbEntity
  8
0
 62
     7
100
AcDbLine
 10
13.663475
 20
8.639154
 30
0.0
 11
13.663475
 21
8.289154
 31
0.0
  0
LINE
  5
498
100
AcDbEntity
  8
0
 62
     7
100
AcDbLine
 10
13.751475
 20
8.289154
 30
0.0
 11
13.751475
 21
8.149154
 31
0.0
  0
LINE
  5
49A
100
AcDbEntity
  8
0
 62
     7
100
AcDbLine
 10
14.698475
 20
7.939154
 30
0.0
 11
14.698475
 21
7.249154
 31
0.0
  0
LINE
  5
49B
100
AcDbEntity
  8
0
 62
     7
100
AcDbLine
 10
15.539475
 20
7.939154
 30
0.0
 11
15.539475
 21
7.249154
 31
0.0
  0
LINE
  5
49C
100
AcDbEntity
  8
OBJ
 62
     7
100
AcDbLine
 10
14.698475
 20
7.399154
 30
0.0
 11
15.539475
 21
7.399154
 31
0.0
  0
LINE
  5
49D
100
AcDbEntity
  8
OBJ
 62
     7
100
AcDbLine
 10
14.805475
 20
6.704154
 30
0.0
 11
15.432475
 21
6.704154
 31
0.0
  0
LINE
  5
49E
100
AcDbEntity
  8
OBJ
 62
     7
100
AcDbLine
 10
14.805475
 20
6.401154
 30
0.0
 11
15.432475
 21
6.401154
 31
0.0
  0
LINE
  5
49F
100
AcDbEntity
  8
OBJ
 62
     7
100
AcDbLine
 10
14.628475
 20
7.189154
 30
0.0
 11
15.609475
 21
7.189154
 31
0.0
  0
LINE
  5
4A0
100
AcDbEntity
  8
OBJ
 62
     7
100
AcDbLine
 10
14.698475
 20
7.249154
 30
0.0
 11
15.539475
 21
7.249154
 31
0.0
  0
LINE
  5
4A1
100
AcDbEntity
  8
OBJ
 62
     7
100
AcDbLine
 10
14.628475
 20
7.039154
 30
0.0
 11
15.609475
 21
7.039154
 31
0.0
  0
LINE
  5
4A2
100
AcDbEntity
  8
0
 62
     7
100
AcDbLine
 10
14.861475
 20
7.039154
 30
0.0
 11
14.861475
 21
6.704154
 31
0.0
  0
LINE
  5
4A3
100
AcDbEntity
  8
0
 62
     7
100
AcDbLine
 10
14.955475
 20
6.704154
 30
0.0
 11
14.955475
 21
6.401154
 31
0.0
  0
LINE
  5
4A4
100
AcDbEntity
  8
0
 62
     7
100
AcDbLine
 10
14.805475
 20
6.704154
 30
0.0
 11
14.805475
 21
6.401154
 31
0.0
  0
LINE
  5
4A5
100
AcDbEntity
  8
0
 62
     7
100
AcDbLine
 10
14.628475
 20
7.189154
 30
0.0
 11
14.698475
 21
7.249154
 31
0.0
  0
LINE
  5
4A6
100
AcDbEntity
  8
0
 62
     7
100
AcDbLine
 10
14.628475
 20
7.189154
 30
0.0
 11
14.628475
 21
7.039154
 31
0.0
  0
LINE
  5
4A7
100
AcDbEntity
  8
0
 62
     7
100
AcDbLine
 10
15.376475
 20
7.039154
 30
0.0
 11
15.376475
 21
6.704154
 31
0.0
  0
LINE
  5
4A8
100
AcDbEntity
  8
0
 62
     7
100
AcDbLine
 10
15.282475
 20
6.704154
 30
0.0
 11
15.282475
 21
6.401154
 31
0.0
  0
LINE
  5
4A9
100
AcDbEntity
  8
0
 62
     7
100
AcDbLine
 10
15.432475
 20
6.704154
 30
0.0
 11
15.432475
 21
6.401154
 31
0.0
  0
LINE
  5
4AA
100
AcDbEntity
  8
0
 62
     7
100
AcDbLine
 10
15.609475
 20
7.189154
 30
0.0
 11
15.539475
 21
7.249154
 31
0.0
  0
LINE
  5
4AB
100
AcDbEntity
  8
0
 62
     7
100
AcDbLine
 10
15.609475
 20
7.189154
 30
0.0
 11
15.609475
 21
7.039154
 31
0.0
  0
LINE
  5
4AC
100
AcDbEntity
  8
OBJ
 62
     7
100
AcDbLine
 10
14.698475
 20
7.789154
 30
0.0
 11
15.539475
 21
7.789154
 31
0.0
  0
LINE
  5
4AD
100
AcDbEntity
  8
OBJ
 62
     7
100
AcDbLine
 10
14.698475
 20
7.939154
 30
0.0
 11
15.539475
 21
7.939154
 31
0.0
  0
LINE
  5
4AE
100
AcDbEntity
  8
OBJ
 62
     7
100
AcDbLine
 10
14.628475
 20
7.999154
 30
0.0
 11
15.609475
 21
7.999154
 31
0.0
  0
LINE
  5
4AF
100
AcDbEntity
  8
OBJ
 62
     7
100
AcDbLine
 10
14.628475
 20
8.149154
 30
0.0
 11
15.609475
 21
8.149154
 31
0.0
  0
LINE
  5
4B0
100
AcDbEntity
  8
OBJ
 62
     7
100
AcDbLine
 10
14.861475
 20
8.289154
 30
0.0
 11
15.376475
 21
8.289154
 31
0.0
  0
LINE
  5
4B1
100
AcDbEntity
  8
0
 62
     7
100
AcDbLine
 10
14.628475
 20
8.149154
 30
0.0
 11
14.628475
 21
7.999154
 31
0.0
  0
LINE
  5
4B2
100
AcDbEntity
  8
0
 62
     7
100
AcDbLine
 10
14.628475
 20
7.999154
 30
0.0
 11
14.698475
 21
7.939154
 31
0.0
  0
LINE
  5
4B3
100
AcDbEntity
  8
0
 62
     7
100
AcDbLine
 10
14.949475
 20
8.639154
 30
0.0
 11
14.949475
 21
8.289154
 31
0.0
  0
LINE
  5
4B4
100
AcDbEntity
  8
0
 62
     7
100
AcDbLine
 10
14.861475
 20
8.289154
 30
0.0
 11
14.861475
 21
8.149154
 31
0.0
  0
LINE
  5
4B5
100
AcDbEntity
  8
0
 62
     7
100
AcDbLine
 10
15.609475
 20
8.149154
 30
0.0
 11
15.609475
 21
7.999154
 31
0.0
  0
LINE
  5
4B6
100
AcDbEntity
  8
0
 62
     7
100
AcDbLine
 10
15.609475
 20
7.999154
 30
0.0
 11
15.539475
 21
7.939154
 31
0.0
  0
LINE
  5
4B7
100
AcDbEntity
  8
0
 62
     7
100
AcDbLine
 10
15.288475
 20
8.639154
 30
0.0
 11
15.288475
 21
8.289154
 31
0.0
  0
LINE
  5
4B8
100
AcDbEntity
  8
0
 62
     7
100
AcDbLine
 10
15.376475
 20
8.289154
 30
0.0
 11
15.376475
 21
8.149154
 31
0.0
  0
LINE
  5
4BA
100
AcDbEntity
  8
0
 62
     7
100
AcDbLine
 10
16.323475
 20
7.939154
 30
0.0
 11
16.323475
 21
7.249154
 31
0.0
  0
LINE
  5
4BB
100
AcDbEntity
  8
0
 62
     7
100
AcDbLine
 10
17.164475
 20
7.939154
 30
0.0
 11
17.164475
 21
7.249154
 31
0.0
  0
LINE
  5
4BC
100
AcDbEntity
  8
OBJ
 62
     7
100
AcDbLine
 10
16.323475
 20
7.399154
 30
0.0
 11
17.164475
 21
7.399154
 31
0.0
  0
LINE
  5
4BD
100
AcDbEntity
  8
OBJ
 62
     7
100
AcDbLine
 10
16.430475
 20
6.704154
 30
0.0
 11
17.057475
 21
6.704154
 31
0.0
  0
LINE
  5
4BE
100
AcDbEntity
  8
OBJ
 62
     7
100
AcDbLine
 10
16.430475
 20
6.401154
 30
0.0
 11
17.057475
 21
6.401154
 31
0.0
  0
LINE
  5
4BF
100
AcDbEntity
  8
OBJ
 62
     7
100
AcDbLine
 10
16.253475
 20
7.189154
 30
0.0
 11
17.234475
 21
7.189154
 31
0.0
  0
LINE
  5
4C0
100
AcDbEntity
  8
OBJ
 62
     7
100
AcDbLine
 10
16.323475
 20
7.249154
 30
0.0
 11
17.164475
 21
7.249154
 31
0.0
  0
LINE
  5
4C1
100
AcDbEntity
  8
OBJ
 62
     7
100
AcDbLine
 10
16.253475
 20
7.039154
 30
0.0
 11
17.234475
 21
7.039154
 31
0.0
  0
LINE
  5
4C2
100
AcDbEntity
  8
0
 62
     7
100
AcDbLine
 10
16.486475
 20
7.039154
 30
0.0
 11
16.486475
 21
6.704154
 31
0.0
  0
LINE
  5
4C3
100
AcDbEntity
  8
0
 62
     7
100
AcDbLine
 10
16.580475
 20
6.704154
 30
0.0
 11
16.580475
 21
6.401154
 31
0.0
  0
LINE
  5
4C4
100
AcDbEntity
  8
0
 62
     7
100
AcDbLine
 10
16.430475
 20
6.704154
 30
0.0
 11
16.430475
 21
6.401154
 31
0.0
  0
LINE
  5
4C5
100
AcDbEntity
  8
0
 62
     7
100
AcDbLine
 10
16.253475
 20
7.189154
 30
0.0
 11
16.323475
 21
7.249154
 31
0.0
  0
LINE
  5
4C6
100
AcDbEntity
  8
0
 62
     7
100
AcDbLine
 10
16.253475
 20
7.189154
 30
0.0
 11
16.253475
 21
7.039154
 31
0.0
  0
LINE
  5
4C7
100
AcDbEntity
  8
0
 62
     7
100
AcDbLine
 10
17.001475
 20
7.039154
 30
0.0
 11
17.001475
 21
6.704154
 31
0.0
  0
LINE
  5
4C8
100
AcDbEntity
  8
0
 62
     7
100
AcDbLine
 10
16.907475
 20
6.704154
 30
0.0
 11
16.907475
 21
6.401154
 31
0.0
  0
LINE
  5
4C9
100
AcDbEntity
  8
0
 62
     7
100
AcDbLine
 10
17.057475
 20
6.704154
 30
0.0
 11
17.057475
 21
6.401154
 31
0.0
  0
LINE
  5
4CA
100
AcDbEntity
  8
0
 62
     7
100
AcDbLine
 10
17.234475
 20
7.189154
 30
0.0
 11
17.164475
 21
7.249154
 31
0.0
  0
LINE
  5
4CB
100
AcDbEntity
  8
0
 62
     7
100
AcDbLine
 10
17.234475
 20
7.189154
 30
0.0
 11
17.234475
 21
7.039154
 31
0.0
  0
LINE
  5
4CC
100
AcDbEntity
  8
OBJ
 62
     7
100
AcDbLine
 10
16.323475
 20
7.789154
 30
0.0
 11
17.164475
 21
7.789154
 31
0.0
  0
LINE
  5
4CD
100
AcDbEntity
  8
OBJ
 62
     7
100
AcDbLine
 10
16.323475
 20
7.939154
 30
0.0
 11
17.164475
 21
7.939154
 31
0.0
  0
LINE
  5
4CE
100
AcDbEntity
  8
OBJ
 62
     7
100
AcDbLine
 10
16.253475
 20
7.999154
 30
0.0
 11
17.234475
 21
7.999154
 31
0.0
  0
LINE
  5
4CF
100
AcDbEntity
  8
OBJ
 62
     7
100
AcDbLine
 10
16.253475
 20
8.149154
 30
0.0
 11
17.234475
 21
8.149154
 31
0.0
  0
LINE
  5
4D0
100
AcDbEntity
  8
OBJ
 62
     7
100
AcDbLine
 10
16.486475
 20
8.289154
 30
0.0
 11
17.001475
 21
8.289154
 31
0.0
  0
LINE
  5
4D1
100
AcDbEntity
  8
0
 62
     7
100
AcDbLine
 10
16.253475
 20
8.149154
 30
0.0
 11
16.253475
 21
7.999154
 31
0.0
  0
LINE
  5
4D2
100
AcDbEntity
  8
0
 62
     7
100
AcDbLine
 10
16.253475
 20
7.999154
 30
0.0
 11
16.323475
 21
7.939154
 31
0.0
  0
LINE
  5
4D3
100
AcDbEntity
  8
0
 62
     7
100
AcDbLine
 10
16.574475
 20
8.639154
 30
0.0
 11
16.574475
 21
8.289154
 31
0.0
  0
LINE
  5
4D4
100
AcDbEntity
  8
0
 62
     7
100
AcDbLine
 10
16.486475
 20
8.289154
 30
0.0
 11
16.486475
 21
8.149154
 31
0.0
  0
LINE
  5
4D5
100
AcDbEntity
  8
0
 62
     7
100
AcDbLine
 10
17.234475
 20
8.149154
 30
0.0
 11
17.234475
 21
7.999154
 31
0.0
  0
LINE
  5
4D6
100
AcDbEntity
  8
0
 62
     7
100
AcDbLine
 10
17.234475
 20
7.999154
 30
0.0
 11
17.164475
 21
7.939154
 31
0.0
  0
LINE
  5
4D7
100
AcDbEntity
  8
0
 62
     7
100
AcDbLine
 10
16.913475
 20
8.639154
 30
0.0
 11
16.913475
 21
8.289154
 31
0.0
  0
LINE
  5
4D8
100
AcDbEntity
  8
0
 62
     7
100
AcDbLine
 10
17.001475
 20
8.289154
 30
0.0
 11
17.001475
 21
8.149154
 31
0.0
  0
LINE
  5
4D9
100
AcDbEntity
  8
0
  6
BYBLOCK
 62
     7
100
AcDbLine
 10
11.618975
 20
9.574154
 30
0.0
 11
11.618975
 21
10.202978
 31
0.0
  0
LINE
  5
4DA
100
AcDbEntity
  8
0
  6
BYBLOCK
 62
     7
100
AcDbLine
 10
11.118975
 20
9.702154
 30
0.0
 11
11.118975
 21
10.202978
 31
0.0
  0
LINE
  5
4DB
100
AcDbEntity
  8
0
  6
BYBLOCK
 62
     7
100
AcDbLine
 10
11.798975
 20
10.022978
 30
0.0
 11
11.978975
 21
10.022978
 31
0.0
  0
LINE
  5
4DC
100
AcDbEntity
  8
0
  6
BYBLOCK
 62
     7
100
AcDbLine
 10
10.938975
 20
10.022978
 30
0.0
 11
10.758975
 21
10.022978
 31
0.0
  0
SOLID
  5
4DF
100
AcDbEntity
  8
0
  6
BYBLOCK
 62
     7
100
AcDbTrace
 10
11.798975
 20
10.052978
 30
0.0
 11
11.798975
 21
9.992978
 31
0.0
 12
11.618975
 22
10.022978
 32
0.0
 13
11.618975
 23
10.022978
 33
0.0
  0
SOLID
  5
4E0
100
AcDbEntity
  8
0
  6
BYBLOCK
 62
     7
100
AcDbTrace
 10
10.938975
 20
10.052978
 30
0.0
 11
10.938975
 21
9.992978
 31
0.0
 12
11.118975
 22
10.022978
 32
0.0
 13
11.118975
 23
10.022978
 33
0.0
  0
POINT
  5
4E1
100
AcDbEntity
  8
DEFPOINTS
  6
BYBLOCK
 62
     7
100
AcDbPoint
 10
11.618975
 20
9.511154
 30
0.0
  0
POINT
  5
4E2
100
AcDbEntity
  8
DEFPOINTS
  6
BYBLOCK
 62
     7
100
AcDbPoint
 10
11.118975
 20
9.639154
 30
0.0
  0
POINT
  5
4E3
100
AcDbEntity
  8
DEFPOINTS
  6
BYBLOCK
 62
     7
100
AcDbPoint
 10
11.118975
 20
10.022978
 30
0.0
  0
LINE
  5
4E5
100
AcDbEntity
  8
0
 62
     7
100
AcDbLine
 10
5.483831
 20
7.878847
 30
0.0
 11
5.483831
 21
7.188847
 31
0.0
  0
LINE
  5
4E6
100
AcDbEntity
  8
0
 62
     7
100
AcDbLine
 10
6.324831
 20
7.878847
 30
0.0
 11
6.324831
 21
7.188847
 31
0.0
  0
LINE
  5
4E7
100
AcDbEntity
  8
OBJ
 62
     7
100
AcDbLine
 10
5.483831
 20
7.338847
 30
0.0
 11
6.324831
 21
7.338847
 31
0.0
  0
LINE
  5
4E8
100
AcDbEntity
  8
OBJ
 62
     7
100
AcDbLine
 10
5.590831
 20
6.643847
 30
0.0
 11
6.217831
 21
6.643847
 31
0.0
  0
LINE
  5
4E9
100
AcDbEntity
  8
OBJ
 62
     7
100
AcDbLine
 10
5.626295
 20
6.340847
 30
0.0
 11
6.253295
 21
6.340847
 31
0.0
  0
LINE
  5
4EA
100
AcDbEntity
  8
OBJ
 62
     7
100
AcDbLine
 10
5.413831
 20
7.128847
 30
0.0
 11
6.394831
 21
7.128847
 31
0.0
  0
LINE
  5
4EB
100
AcDbEntity
  8
OBJ
 62
     7
100
AcDbLine
 10
5.483831
 20
7.188847
 30
0.0
 11
6.324831
 21
7.188847
 31
0.0
  0
LINE
  5
4EC
100
AcDbEntity
  8
OBJ
 62
     7
100
AcDbLine
 10
5.413831
 20
6.978847
 30
0.0
 11
6.394831
 21
6.978847
 31
0.0
  0
LINE
  5
4ED
100
AcDbEntity
  8
0
 62
     7
100
AcDbLine
 10
5.646831
 20
6.978847
 30
0.0
 11
5.646831
 21
6.643847
 31
0.0
  0
LINE
  5
4EE
100
AcDbEntity
  8
0
 62
     7
100
AcDbLine
 10
5.740831
 20
6.643847
 30
0.0
 11
5.740831
 21
6.340847
 31
0.0
  0
LINE
  5
4EF
100
AcDbEntity
  8
0
 62
     7
100
AcDbLine
 10
5.590831
 20
6.643847
 30
0.0
 11
5.590831
 21
6.340847
 31
0.0
  0
LINE
  5
4F0
100
AcDbEntity
  8
0
 62
     7
100
AcDbLine
 10
5.413831
 20
7.128847
 30
0.0
 11
5.483831
 21
7.188847
 31
0.0
  0
LINE
  5
4F1
100
AcDbEntity
  8
0
 62
     7
100
AcDbLine
 10
5.413831
 20
7.128847
 30
0.0
 11
5.413831
 21
6.978847
 31
0.0
  0
LINE
  5
4F2
100
AcDbEntity
  8
0
 62
     7
100
AcDbLine
 10
6.161831
 20
6.978847
 30
0.0
 11
6.161831
 21
6.643847
 31
0.0
  0
LINE
  5
4F3
100
AcDbEntity
  8
0
 62
     7
100
AcDbLine
 10
6.067831
 20
6.643847
 30
0.0
 11
6.067831
 21
6.340847
 31
0.0
  0
LINE
  5
4F4
100
AcDbEntity
  8
0
 62
     7
100
AcDbLine
 10
6.217831
 20
6.643847
 30
0.0
 11
6.217831
 21
6.340847
 31
0.0
  0
LINE
  5
4F5
100
AcDbEntity
  8
0
 62
     7
100
AcDbLine
 10
6.394831
 20
7.128847
 30
0.0
 11
6.324831
 21
7.188847
 31
0.0
  0
LINE
  5
4F6
100
AcDbEntity
  8
0
 62
     7
100
AcDbLine
 10
6.394831
 20
7.128847
 30
0.0
 11
6.394831
 21
6.978847
 31
0.0
  0
LINE
  5
4F7
100
AcDbEntity
  8
OBJ
 62
     7
100
AcDbLine
 10
5.483831
 20
7.728847
 30
0.0
 11
6.324831
 21
7.728847
 31
0.0
  0
LINE
  5
4F8
100
AcDbEntity
  8
OBJ
 62
     7
100
AcDbLine
 10
5.483831
 20
7.878847
 30
0.0
 11
6.324831
 21
7.878847
 31
0.0
  0
LINE
  5
4F9
100
AcDbEntity
  8
OBJ
 62
     7
100
AcDbLine
 10
5.413831
 20
7.938847
 30
0.0
 11
6.394831
 21
7.938847
 31
0.0
  0
LINE
  5
4FA
100
AcDbEntity
  8
OBJ
 62
     7
100
AcDbLine
 10
5.413831
 20
8.088847
 30
0.0
 11
6.394831
 21
8.088847
 31
0.0
  0
LINE
  5
4FB
100
AcDbEntity
  8
OBJ
 62
     7
100
AcDbLine
 10
5.646831
 20
8.228847
 30
0.0
 11
6.161831
 21
8.228847
 31
0.0
  0
LINE
  5
4FC
100
AcDbEntity
  8
0
 62
     7
100
AcDbLine
 10
5.413831
 20
8.088847
 30
0.0
 11
5.413831
 21
7.938847
 31
0.0
  0
LINE
  5
4FD
100
AcDbEntity
  8
0
 62
     7
100
AcDbLine
 10
5.413831
 20
7.938847
 30
0.0
 11
5.483831
 21
7.878847
 31
0.0
  0
LINE
  5
4FE
100
AcDbEntity
  8
0
 62
     7
100
AcDbLine
 10
5.734831
 20
8.578847
 30
0.0
 11
5.734831
 21
8.228847
 31
0.0
  0
LINE
  5
4FF
100
AcDbEntity
  8
0
 62
     7
100
AcDbLine
 10
5.646831
 20
8.228847
 30
0.0
 11
5.646831
 21
8.088847
 31
0.0
  0
LINE
  5
500
100
AcDbEntity
  8
0
 62
     7
100
AcDbLine
 10
6.394831
 20
8.088847
 30
0.0
 11
6.394831
 21
7.938847
 31
0.0
  0
LINE
  5
501
100
AcDbEntity
  8
0
 62
     7
100
AcDbLine
 10
6.394831
 20
7.938847
 30
0.0
 11
6.324831
 21
7.878847
 31
0.0
  0
LINE
  5
502
100
AcDbEntity
  8
0
 62
     7
100
AcDbLine
 10
6.073831
 20
8.578847
 30
0.0
 11
6.073831
 21
8.228847
 31
0.0
  0
LINE
  5
503
100
AcDbEntity
  8
0
 62
     7
100
AcDbLine
 10
6.161831
 20
8.228847
 30
0.0
 11
6.161831
 21
8.088847
 31
0.0
  0
LINE
  5
514
100
AcDbEntity
  8
0
  6
BYBLOCK
 62
     7
100
AcDbLine
 10
5.332492
 20
9.639154
 30
0.0
 11
4.359881
 21
9.639154
 31
0.0
  0
LINE
  5
515
100
AcDbEntity
  8
0
  6
BYBLOCK
 62
     7
100
AcDbLine
 10
5.332492
 20
8.639154
 30
0.0
 11
4.359881
 21
8.639154
 31
0.0
  0
LINE
  5
516
100
AcDbEntity
  8
0
  6
BYBLOCK
 62
     7
100
AcDbLine
 10
4.539881
 20
9.459154
 30
0.0
 11
4.539881
 21
9.319154
 31
0.0
  0
LINE
  5
517
100
AcDbEntity
  8
0
  6
BYBLOCK
 62
     7
100
AcDbLine
 10
4.539881
 20
8.819154
 30
0.0
 11
4.539881
 21
8.959154
 31
0.0
  0
SOLID
  5
518
100
AcDbEntity
  8
0
  6
BYBLOCK
 62
     7
100
AcDbTrace
 10
4.509881
 20
9.459154
 30
0.0
 11
4.569881
 21
9.459154
 31
0.0
 12
4.539881
 22
9.639154
 32
0.0
 13
4.539881
 23
9.639154
 33
0.0
  0
SOLID
  5
519
100
AcDbEntity
  8
0
  6
BYBLOCK
 62
     7
100
AcDbTrace
 10
4.509881
 20
8.819154
 30
0.0
 11
4.569881
 21
8.819154
 31
0.0
 12
4.539881
 22
8.639154
 32
0.0
 13
4.539881
 23
8.639154
 33
0.0
  0
TEXT
  5
51A
100
AcDbEntity
  8
0
  6
BYBLOCK
 62
     7
100
AcDbText
 10
4.439881
 20
8.989154
 30
0.0
 40
0.3
  1
F
 72
     1
 11
4.539881
 21
9.139154
 31
0.0
100
AcDbText
 73
     2
  0
POINT
  5
51B
100
AcDbEntity
  8
DEFPOINTS
  6
BYBLOCK
 62
     7
100
AcDbPoint
 10
5.394992
 20
9.639154
 30
0.0
  0
POINT
  5
51C
100
AcDbEntity
  8
DEFPOINTS
  6
BYBLOCK
 62
     7
100
AcDbPoint
 10
5.394992
 20
8.639154
 30
0.0
  0
POINT
  5
51D
100
AcDbEntity
  8
DEFPOINTS
  6
BYBLOCK
 62
     7
100
AcDbPoint
 10
4.539881
 20
8.639154
 30
0.0
  0
LINE
  5
51E
100
AcDbEntity
  8
0
  6
BYBLOCK
 62
     7
100
AcDbLine
 10
5.394992
 20
9.702154
 30
0.0
 11
5.394992
 21
11.089563
 31
0.0
  0
LINE
  5
51F
100
AcDbEntity
  8
0
  6
BYBLOCK
 62
     7
100
AcDbLine
 10
6.394992
 20
9.702154
 30
0.0
 11
6.394992
 21
11.089563
 31
0.0
  0
LINE
  5
520
100
AcDbEntity
  8
0
  6
BYBLOCK
 62
     7
100
AcDbLine
 10
5.214992
 20
10.909563
 30
0.0
 11
5.034992
 21
10.909563
 31
0.0
  0
LINE
  5
521
100
AcDbEntity
  8
0
  6
BYBLOCK
 62
     7
100
AcDbLine
 10
6.574992
 20
10.909563
 30
0.0
 11
6.754992
 21
10.909563
 31
0.0
  0
SOLID
  5
522
100
AcDbEntity
  8
0
  6
BYBLOCK
 62
     7
100
AcDbTrace
 10
5.214992
 20
10.939563
 30
0.0
 11
5.214992
 21
10.879563
 31
0.0
 12
5.394992
 22
10.909563
 32
0.0
 13
5.394992
 23
10.909563
 33
0.0
  0
SOLID
  5
523
100
AcDbEntity
  8
0
  6
BYBLOCK
 62
     7
100
AcDbTrace
 10
6.574992
 20
10.939563
 30
0.0
 11
6.574992
 21
10.879563
 31
0.0
 12
6.394992
 22
10.909563
 32
0.0
 13
6.394992
 23
10.909563
 33
0.0
  0
POINT
  5
525
100
AcDbEntity
  8
DEFPOINTS
  6
BYBLOCK
 62
     7
100
AcDbPoint
 10
5.394992
 20
9.639154
 30
0.0
  0
POINT
  5
526
100
AcDbEntity
  8
DEFPOINTS
  6
BYBLOCK
 62
     7
100
AcDbPoint
 10
6.394992
 20
9.639154
 30
0.0
  0
POINT
  5
527
100
AcDbEntity
  8
DEFPOINTS
  6
BYBLOCK
 62
     7
100
AcDbPoint
 10
6.394992
 20
10.909563
 30
0.0
  0
LINE
  5
537
100
AcDbEntity
  8
0
  6
BYBLOCK
 62
     7
100
AcDbLine
 10
5.394992
 20
9.702154
 30
0.0
 11
5.394992
 21
10.718086
 31
0.0
  0
LINE
  5
538
100
AcDbEntity
  8
0
  6
BYBLOCK
 62
     7
100
AcDbLine
 10
5.944992
 20
9.102154
 30
0.0
 11
5.944992
 21
10.718086
 31
0.0
  0
LINE
  5
539
100
AcDbEntity
  8
0
  6
BYBLOCK
 62
     7
100
AcDbLine
 10
5.214992
 20
10.538086
 30
0.0
 11
5.034992
 21
10.538086
 31
0.0
  0
LINE
  5
53A
100
AcDbEntity
  8
0
  6
BYBLOCK
 62
     7
100
AcDbLine
 10
6.124992
 20
10.538086
 30
0.0
 11
6.304992
 21
10.538086
 31
0.0
  0
SOLID
  5
53B
100
AcDbEntity
  8
0
  6
BYBLOCK
 62
     7
100
AcDbTrace
 10
5.214992
 20
10.568086
 30
0.0
 11
5.214992
 21
10.508086
 31
0.0
 12
5.394992
 22
10.538086
 32
0.0
 13
5.394992
 23
10.538086
 33
0.0
  0
SOLID
  5
53C
100
AcDbEntity
  8
0
  6
BYBLOCK
 62
     7
100
AcDbTrace
 10
6.124992
 20
10.568086
 30
0.0
 11
6.124992
 21
10.508086
 31
0.0
 12
5.944992
 22
10.538086
 32
0.0
 13
5.944992
 23
10.538086
 33
0.0
  0
POINT
  5
53E
100
AcDbEntity
  8
DEFPOINTS
  6
BYBLOCK
 62
     7
100
AcDbPoint
 10
5.394992
 20
9.639154
 30
0.0
  0
POINT
  5
53F
100
AcDbEntity
  8
DEFPOINTS
  6
BYBLOCK
 62
     7
100
AcDbPoint
 10
5.944992
 20
9.039154
 30
0.0
  0
POINT
  5
540
100
AcDbEntity
  8
DEFPOINTS
  6
BYBLOCK
 62
     7
100
AcDbPoint
 10
5.944992
 20
10.538086
 30
0.0
  0
LINE
  5
556
100
AcDbEntity
  8
0
  6
BYBLOCK
 62
     7
100
AcDbLine
 10
4.422881
 20
8.639154
 30
0.0
 11
4.720694
 21
8.639154
 31
0.0
  0
LINE
  5
557
100
AcDbEntity
  8
0
  6
BYBLOCK
 62
     7
100
AcDbLine
 10
5.527831
 20
6.340847
 30
0.0
 11
4.360694
 21
6.340847
 31
0.0
  0
LINE
  5
558
100
AcDbEntity
  8
0
  6
BYBLOCK
 62
     7
100
AcDbLine
 10
4.540694
 20
8.459154
 30
0.0
 11
4.540694
 21
7.86407
 31
0.0
  0
LINE
  5
559
100
AcDbEntity
  8
0
  6
BYBLOCK
 62
     7
100
AcDbLine
 10
4.540694
 20
6.520847
 30
0.0
 11
4.540694
 21
7.095262
 31
0.0
  0
SOLID
  5
55A
100
AcDbEntity
  8
0
  6
BYBLOCK
 62
     7
100
AcDbTrace
 10
4.510694
 20
8.459154
 30
0.0
 11
4.570694
 21
8.459154
 31
0.0
 12
4.540694
 22
8.639154
 32
0.0
 13
4.540694
 23
8.639154
 33
0.0
  0
SOLID
  5
55B
100
AcDbEntity
  8
0
  6
BYBLOCK
 62
     7
100
AcDbTrace
 10
4.510694
 20
6.520847
 30
0.0
 11
4.570694
 21
6.520847
 31
0.0
 12
4.540694
 22
6.340847
 32
0.0
 13
4.540694
 23
6.340847
 33
0.0
  0
POINT
  5
55D
100
AcDbEntity
  8
DEFPOINTS
  6
BYBLOCK
 62
     7
100
AcDbPoint
 10
4.359881
 20
8.639154
 30
0.0
  0
POINT
  5
55E
100
AcDbEntity
  8
DEFPOINTS
  6
BYBLOCK
 62
     7
100
AcDbPoint
 10
5.590831
 20
6.340847
 30
0.0
  0
POINT
  5
55F
100
AcDbEntity
  8
DEFPOINTS
  6
BYBLOCK
 62
     7
100
AcDbPoint
 10
4.540694
 20
6.340847
 30
0.0
  0
LINE
  5
575
100
AcDbEntity
  8
0
 62
     7
100
AcDbLine
 10
13.073475
 20
7.646442
 30
0.0
 11
13.216187
 21
7.789154
 31
0.0
  0
LINE
  5
576
100
AcDbEntity
  8
0
 62
     7
100
AcDbLine
 10
13.073475
 20
7.469666
 30
0.0
 11
13.392964
 21
7.789154
 31
0.0
  0
LINE
  5
577
100
AcDbEntity
  8
0
 62
     7
100
AcDbLine
 10
13.17974
 20
7.399154
 30
0.0
 11
13.56974
 21
7.789154
 31
0.0
  0
LINE
  5
578
100
AcDbEntity
  8
0
 62
     7
100
AcDbLine
 10
13.356517
 20
7.399154
 30
0.0
 11
13.746517
 21
7.789154
 31
0.0
  0
LINE
  5
579
100
AcDbEntity
  8
0
 62
     7
100
AcDbLine
 10
13.533294
 20
7.399154
 30
0.0
 11
13.914475
 21
7.780335
 31
0.0
  0
LINE
  5
57A
100
AcDbEntity
  8
0
 62
     7
100
AcDbLine
 10
13.71007
 20
7.399154
 30
0.0
 11
13.914475
 21
7.603559
 31
0.0
  0
LINE
  5
57B
100
AcDbEntity
  8
0
 62
     7
100
AcDbLine
 10
13.886847
 20
7.399154
 30
0.0
 11
13.914475
 21
7.426782
 31
0.0
  0
LINE
  5
57C
100
AcDbEntity
  8
0
 62
     7
100
AcDbLine
 10
13.230675
 20
7.399154
 30
0.0
 11
13.073475
 21
7.556354
 31
0.0
  0
LINE
  5
57D
100
AcDbEntity
  8
0
 62
     7
100
AcDbLine
 10
13.407451
 20
7.399154
 30
0.0
 11
13.073475
 21
7.73313
 31
0.0
  0
LINE
  5
57E
100
AcDbEntity
  8
0
 62
     7
100
AcDbLine
 10
13.584228
 20
7.399154
 30
0.0
 11
13.194228
 21
7.789154
 31
0.0
  0
LINE
  5
57F
100
AcDbEntity
  8
0
 62
     7
100
AcDbLine
 10
13.761005
 20
7.399154
 30
0.0
 11
13.371005
 21
7.789154
 31
0.0
  0
LINE
  5
580
100
AcDbEntity
  8
0
 62
     7
100
AcDbLine
 10
13.914475
 20
7.42246
 30
0.0
 11
13.547782
 21
7.789154
 31
0.0
  0
LINE
  5
581
100
AcDbEntity
  8
0
 62
     7
100
AcDbLine
 10
13.914475
 20
7.599237
 30
0.0
 11
13.724558
 21
7.789154
 31
0.0
  0
LINE
  5
582
100
AcDbEntity
  8
0
 62
     7
100
AcDbLine
 10
13.914475
 20
7.776014
 30
0.0
 11
13.901335
 21
7.789154
 31
0.0
  0
LINE
  5
583
100
AcDbEntity
  8
0
  6
BYBLOCK
 62
     7
100
AcDbLine
 10
11.118975
 20
9.702154
 30
0.0
 11
11.118975
 21
10.583697
 31
0.0
  0
LINE
  5
584
100
AcDbEntity
  8
0
  6
BYBLOCK
 62
     7
100
AcDbLine
 10
17.493975
 20
9.702154
 30
0.0
 11
17.493975
 21
10.583697
 31
0.0
  0
LINE
  5
585
100
AcDbEntity
  8
0
  6
BYBLOCK
 62
     7
100
AcDbLine
 10
11.298975
 20
10.403697
 30
0.0
 11
13.868791
 21
10.403697
 31
0.0
  0
LINE
  5
586
100
AcDbEntity
  8
0
  6
BYBLOCK
 62
     7
100
AcDbLine
 10
17.313975
 20
10.403697
 30
0.0
 11
14.753989
 21
10.403697
 31
0.0
  0
SOLID
  5
587
100
AcDbEntity
  8
0
  6
BYBLOCK
 62
     7
100
AcDbTrace
 10
11.298975
 20
10.433697
 30
0.0
 11
11.298975
 21
10.373697
 31
0.0
 12
11.118975
 22
10.403697
 32
0.0
 13
11.118975
 23
10.403697
 33
0.0
  0
SOLID
  5
588
100
AcDbEntity
  8
0
  6
BYBLOCK
 62
     7
100
AcDbTrace
 10
17.313975
 20
10.433697
 30
0.0
 11
17.313975
 21
10.373697
 31
0.0
 12
17.493975
 22
10.403697
 32
0.0
 13
17.493975
 23
10.403697
 33
0.0
  0
MTEXT
  5
589
100
AcDbEntity
  8
0
  6
BYBLOCK
 62
     7
100
AcDbMText
 10
14.306475
 20
10.403697
 30
0.0
 40
0.3
 41
0.0
 71
     5
 72
     1
  1
\A1;A
  0
POINT
  5
58A
100
AcDbEntity
  8
DEFPOINTS
  6
BYBLOCK
 62
     7
100
AcDbPoint
 10
11.118975
 20
9.639154
 30
0.0
  0
POINT
  5
58B
100
AcDbEntity
  8
DEFPOINTS
  6
BYBLOCK
 62
     7
100
AcDbPoint
 10
17.493975
 20
9.639154
 30
0.0
  0
POINT
  5
58C
100
AcDbEntity
  8
DEFPOINTS
  6
BYBLOCK
 62
     7
100
AcDbPoint
 10
17.493975
 20
10.403697
 30
0.0
  0
LINE
  5
597
100
AcDbEntity
  8
0
  6
BYBLOCK
 62
     7
100
AcDbLine
 10
16.993975
 20
9.574154
 30
0.0
 11
16.993975
 21
10.202978
 31
0.0
  0
LINE
  5
598
100
AcDbEntity
  8
0
  6
BYBLOCK
 62
     7
100
AcDbLine
 10
11.618975
 20
9.574154
 30
0.0
 11
11.618975
 21
10.202978
 31
0.0
  0
LINE
  5
599
100
AcDbEntity
  8
0
  6
BYBLOCK
 62
     7
100
AcDbLine
 10
16.813975
 20
10.022978
 30
0.0
 11
14.696259
 21
10.022978
 31
0.0
  0
LINE
  5
59A
100
AcDbEntity
  8
0
  6
BYBLOCK
 62
     7
100
AcDbLine
 10
11.798975
 20
10.022978
 30
0.0
 11
13.945765
 21
10.022978
 31
0.0
  0
SOLID
  5
59B
100
AcDbEntity
  8
0
  6
BYBLOCK
 62
     7
100
AcDbTrace
 10
16.813975
 20
10.052978
 30
0.0
 11
16.813975
 21
9.992978
 31
0.0
 12
16.993975
 22
10.022978
 32
0.0
 13
16.993975
 23
10.022978
 33
0.0
  0
SOLID
  5
59C
100
AcDbEntity
  8
0
  6
BYBLOCK
 62
     7
100
AcDbTrace
 10
11.798975
 20
10.052978
 30
0.0
 11
11.798975
 21
9.992978
 31
0.0
 12
11.618975
 22
10.022978
 32
0.0
 13
11.618975
 23
10.022978
 33
0.0
  0
MTEXT
  5
59D
100
AcDbEntity
  8
0
  6
BYBLOCK
 62
     7
100
AcDbMText
 10
14.287232
 20
9.946097
 30
0.0
 40
0.3
 41
0.0
 71
     5
 72
     1
  1
\A1;B
  0
POINT
  5
59E
100
AcDbEntity
  8
DEFPOINTS
  6
BYBLOCK
 62
     7
100
AcDbPoint
 10
16.993975
 20
9.511154
 30
0.0
  0
POINT
  5
59F
100
AcDbEntity
  8
DEFPOINTS
  6
BYBLOCK
 62
     7
100
AcDbPoint
 10
11.618975
 20
9.511154
 30
0.0
  0
POINT
  5
5A0
100
AcDbEntity
  8
DEFPOINTS
  6
BYBLOCK
 62
     7
100
AcDbPoint
 10
11.618975
 20
10.022978
 30
0.0
  0
TEXT
  5
5A1
100
AcDbEntity
  8
0
 62
     7
100
AcDbText
 10
4.480694
 20
7.400001
 30
0.0
 40
0.3
  1
H
100
AcDbText
  0
LINE
  5
5A2
100
AcDbEntity
  8
0
 62
     7
100
AcDbLine
 10
5.483831
 20
7.586135
 30
0.0
 11
5.626543
 21
7.728847
 31
0.0
  0
LINE
  5
5A3
100
AcDbEntity
  8
0
 62
     7
100
AcDbLine
 10
5.483831
 20
7.409359
 30
0.0
 11
5.803319
 21
7.728847
 31
0.0
  0
LINE
  5
5A4
100
AcDbEntity
  8
0
 62
     7
100
AcDbLine
 10
5.590096
 20
7.338847
 30
0.0
 11
5.980096
 21
7.728847
 31
0.0
  0
LINE
  5
5A5
100
AcDbEntity
  8
0
 62
     7
100
AcDbLine
 10
5.766873
 20
7.338847
 30
0.0
 11
6.156873
 21
7.728847
 31
0.0
  0
LINE
  5
5A6
100
AcDbEntity
  8
0
 62
     7
100
AcDbLine
 10
5.943649
 20
7.338847
 30
0.0
 11
6.324831
 21
7.720029
 31
0.0
  0
LINE
  5
5A7
100
AcDbEntity
  8
0
 62
     7
100
AcDbLine
 10
6.120426
 20
7.338847
 30
0.0
 11
6.324831
 21
7.543252
 31
0.0
  0
LINE
  5
5A8
100
AcDbEntity
  8
0
 62
     7
100
AcDbLine
 10
6.297203
 20
7.338847
 30
0.0
 11
6.324831
 21
7.366475
 31
0.0
  0
LINE
  5
5A9
100
AcDbEntity
  8
0
 62
     7
100
AcDbLine
 10
5.64103
 20
7.338847
 30
0.0
 11
5.483831
 21
7.496047
 31
0.0
  0
LINE
  5
5AA
100
AcDbEntity
  8
0
 62
     7
100
AcDbLine
 10
5.817807
 20
7.338847
 30
0.0
 11
5.483831
 21
7.672824
 31
0.0
  0
LINE
  5
5AB
100
AcDbEntity
  8
0
 62
     7
100
AcDbLine
 10
5.994584
 20
7.338847
 30
0.0
 11
5.604584
 21
7.728847
 31
0.0
  0
LINE
  5
5AC
100
AcDbEntity
  8
0
 62
     7
100
AcDbLine
 10
6.171361
 20
7.338847
 30
0.0
 11
5.781361
 21
7.728847
 31
0.0
  0
LINE
  5
5AD
100
AcDbEntity
  8
0
 62
     7
100
AcDbLine
 10
6.324831
 20
7.362154
 30
0.0
 11
5.958137
 21
7.728847
 31
0.0
  0
LINE
  5
5AE
100
AcDbEntity
  8
0
 62
     7
100
AcDbLine
 10
6.324831
 20
7.53893
 30
0.0
 11
6.134914
 21
7.728847
 31
0.0
  0
LINE
  5
5AF
100
AcDbEntity
  8
0
 62
     7
100
AcDbLine
 10
6.324831
 20
7.715707
 30
0.0
 11
6.311691
 21
7.728847
 31
0.0
  0
LINE
  5
5B0
100
AcDbEntity
  8
0
 62
     7
100
AcDbLine
 10
11.448475
 20
7.646442
 30
0.0
 11
11.591187
 21
7.789154
 31
0.0
  0
LINE
  5
5B1
100
AcDbEntity
  8
0
 62
     7
100
AcDbLine
 10
11.448475
 20
7.469666
 30
0.0
 11
11.767964
 21
7.789154
 31
0.0
  0
LINE
  5
5B2
100
AcDbEntity
  8
0
 62
     7
100
AcDbLine
 10
11.55474
 20
7.399154
 30
0.0
 11
11.94474
 21
7.789154
 31
0.0
  0
LINE
  5
5B3
100
AcDbEntity
  8
0
 62
     7
100
AcDbLine
 10
11.731517
 20
7.399154
 30
0.0
 11
12.121517
 21
7.789154
 31
0.0
  0
LINE
  5
5B4
100
AcDbEntity
  8
0
 62
     7
100
AcDbLine
 10
11.908294
 20
7.399154
 30
0.0
 11
12.289475
 21
7.780335
 31
0.0
  0
LINE
  5
5B5
100
AcDbEntity
  8
0
 62
     7
100
AcDbLine
 10
12.08507
 20
7.399154
 30
0.0
 11
12.289475
 21
7.603559
 31
0.0
  0
LINE
  5
5B6
100
AcDbEntity
  8
0
 62
     7
100
AcDbLine
 10
12.261847
 20
7.399154
 30
0.0
 11
12.289475
 21
7.426782
 31
0.0
  0
LINE
  5
5B7
100
AcDbEntity
  8
0
 62
     7
100
AcDbLine
 10
11.605675
 20
7.399154
 30
0.0
 11
11.448475
 21
7.556354
 31
0.0
  0
LINE
  5
5B8
100
AcDbEntity
  8
0
 62
     7
100
AcDbLine
 10
11.782451
 20
7.399154
 30
0.0
 11
11.448475
 21
7.73313
 31
0.0
  0
LINE
  5
5B9
100
AcDbEntity
  8
0
 62
     7
100
AcDbLine
 10
11.959228
 20
7.399154
 30
0.0
 11
11.569228
 21
7.789154
 31
0.0
  0
LINE
  5
5BA
100
AcDbEntity
  8
0
 62
     7
100
AcDbLine
 10
12.136005
 20
7.399154
 30
0.0
 11
11.746005
 21
7.789154
 31
0.0
  0
LINE
  5
5BB
100
AcDbEntity
  8
0
 62
     7
100
AcDbLine
 10
12.289475
 20
7.42246
 30
0.0
 11
11.922782
 21
7.789154
 31
0.0
  0
LINE
  5
5BC
100
AcDbEntity
  8
0
 62
     7
100
AcDbLine
 10
12.289475
 20
7.599237
 30
0.0
 11
12.099558
 21
7.789154
 31
0.0
  0
LINE
  5
5BD
100
AcDbEntity
  8
0
 62
     7
100
AcDbLine
 10
12.289475
 20
7.776014
 30
0.0
 11
12.276335
 21
7.789154
 31
0.0
  0
TEXT
  5
5BF
100
AcDbEntity
  8
0
 62
     7
100
AcDbText
 10
9.898203
 20
5.788475
 30
0.0
 40
0.2
  1
J (NPT)
100
AcDbText
  0
TEXT
  5
5C0
100
AcDbEntity
  8
0
 62
     7
100
AcDbText
 10
9.838203
 20
5.488475
 30
0.0
 40
0.2
  1
AIR OUT
100
AcDbText
  0
SOLID
  5
5C1
100
AcDbEntity
  8
0
 62
     7
100
AcDbTrace
 10
11.579829
 20
6.268817
 30
0.0
 11
11.705475
 21
6.401154
 31
0.0
 12
11.629541
 22
6.23522
 32
0.0
 13
11.629541
 23
6.23522
 33
0.0
  0
LWPOLYLINE
  5
5C2
100
AcDbEntity
  8
0
 62
     7
100
AcDbPolyline
 90
        3
 70
     0
 43
0.0
 10
11.604685
 20
6.252019
 10
11.250857
 20
5.728475
 10
11.068203
 20
5.728475
  0
SOLID
  5
5C3
100
AcDbEntity
  8
0
 62
     7
100
AcDbTrace
 10
5.700365
 20
9.286752
 30
0.0
 11
5.80867
 21
9.139885
 31
0.0
 12
5.658587
 22
9.243687
 32
0.0
 13
5.658587
 23
9.243687
 33
0.0
  0
LWPOLYLINE
  5
5C4
100
AcDbEntity
  8
0
 62
     7
100
AcDbPolyline
 90
        3
 70
     0
 43
0.0
 10
5.679476
 20
9.26522
 10
4.481606
 20
10.427309
 10
4.168988
 20
10.427309
  0
TEXT
  5
5C5
100
AcDbEntity
  8
0
 62
     7
100
AcDbText
 10
2.914662
 20
10.50653
 30
0.0
 40
0.2
  1
I (NPT)
100
AcDbText
  0
TEXT
  5
5C6
100
AcDbEntity
  8
0
 62
     7
100
AcDbText
 10
3.044284
 20
10.168089
 30
0.0
 40
0.2
  1
AIR IN
100
AcDbText
  0
LINE
  5
5CA
100
AcDbEntity
  8
0
  6
BYBLOCK
 62
     7
100
AcDbLine
 10
6.177492
 20
9.039154
 30
0.0
 11
7.258137
 21
9.039154
 31
0.0
  0
LINE
  5
5CB
100
AcDbEntity
  8
0
  6
BYBLOCK
 62
     7
100
AcDbLine
 10
6.457992
 20
8.639154
 30
0.0
 11
7.258137
 21
8.639154
 31
0.0
  0
LINE
  5
5CC
100
AcDbEntity
  8
0
  6
BYBLOCK
 62
     7
100
AcDbLine
 10
7.078137
 20
9.219154
 30
0.0
 11
7.078137
 21
9.399154
 31
0.0
  0
LINE
  5
5CD
100
AcDbEntity
  8
0
  6
BYBLOCK
 62
     7
100
AcDbLine
 10
7.078137
 20
8.459154
 30
0.0
 11
7.078137
 21
8.279154
 31
0.0
  0
SOLID
  5
5CE
100
AcDbEntity
  8
0
  6
BYBLOCK
 62
     7
100
AcDbTrace
 10
7.048137
 20
9.219154
 30
0.0
 11
7.108137
 21
9.219154
 31
0.0
 12
7.078137
 22
9.039154
 32
0.0
 13
7.078137
 23
9.039154
 33
0.0
  0
SOLID
  5
5CF
100
AcDbEntity
  8
0
  6
BYBLOCK
 62
     7
100
AcDbTrace
 10
7.048137
 20
8.459154
 30
0.0
 11
7.108137
 21
8.459154
 31
0.0
 12
7.078137
 22
8.639154
 32
0.0
 13
7.078137
 23
8.639154
 33
0.0
  0
POINT
  5
5D1
100
AcDbEntity
  8
DEFPOINTS
  6
BYBLOCK
 62
     7
100
AcDbPoint
 10
6.114492
 20
9.039154
 30
0.0
  0
POINT
  5
5D2
100
AcDbEntity
  8
DEFPOINTS
  6
BYBLOCK
 62
     7
100
AcDbPoint
 10
6.394992
 20
8.639154
 30
0.0
  0
POINT
  5
5D3
100
AcDbEntity
  8
DEFPOINTS
  6
BYBLOCK
 62
     7
100
AcDbPoint
 10
7.078137
 20
8.639154
 30
0.0
  0
TEXT
  5
5D4
100
AcDbEntity
  8
0
 62
     7
100
AcDbText
 10
5.552261
 20
10.332765
 30
0.0
 40
0.3
  1
G
100
AcDbText
  0
TEXT
  5
5D5
100
AcDbEntity
  8
0
 62
     7
100
AcDbText
 10
5.834992
 20
10.819563
 30
0.0
 40
0.3
  1
K
100
AcDbText
  0
TEXT
  5
5D6
100
AcDbEntity
  8
0
 62
     7
100
AcDbText
 10
11.267559
 20
9.856097
 30
0.0
 40
0.3
  1
D
100
AcDbText
  0
LINE
  5
5D7
100
AcDbEntity
  8
0
 62
     7
100
AcDbLine
 10
16.323475
 20
7.646442
 30
0.0
 11
16.466187
 21
7.789154
 31
0.0
  0
LINE
  5
5D8
100
AcDbEntity
  8
0
 62
     7
100
AcDbLine
 10
16.323475
 20
7.469666
 30
0.0
 11
16.642964
 21
7.789154
 31
0.0
  0
LINE
  5
5D9
100
AcDbEntity
  8
0
 62
     7
100
AcDbLine
 10
16.42974
 20
7.399154
 30
0.0
 11
16.81974
 21
7.789154
 31
0.0
  0
LINE
  5
5DA
100
AcDbEntity
  8
0
 62
     7
100
AcDbLine
 10
16.606517
 20
7.399154
 30
0.0
 11
16.996517
 21
7.789154
 31
0.0
  0
LINE
  5
5DB
100
AcDbEntity
  8
0
 62
     7
100
AcDbLine
 10
16.783294
 20
7.399154
 30
0.0
 11
17.164475
 21
7.780335
 31
0.0
  0
LINE
  5
5DC
100
AcDbEntity
  8
0
 62
     7
100
AcDbLine
 10
16.96007
 20
7.399154
 30
0.0
 11
17.164475
 21
7.603559
 31
0.0
  0
LINE
  5
5DD
100
AcDbEntity
  8
0
 62
     7
100
AcDbLine
 10
17.136847
 20
7.399154
 30
0.0
 11
17.164475
 21
7.426782
 31
0.0
  0
LINE
  5
5DE
100
AcDbEntity
  8
0
 62
     7
100
AcDbLine
 10
16.480675
 20
7.399154
 30
0.0
 11
16.323475
 21
7.556354
 31
0.0
  0
LINE
  5
5DF
100
AcDbEntity
  8
0
 62
     7
100
AcDbLine
 10
16.657451
 20
7.399154
 30
0.0
 11
16.323475
 21
7.73313
 31
0.0
  0
LINE
  5
5E0
100
AcDbEntity
  8
0
 62
     7
100
AcDbLine
 10
16.834228
 20
7.399154
 30
0.0
 11
16.444228
 21
7.789154
 31
0.0
  0
LINE
  5
5E1
100
AcDbEntity
  8
0
 62
     7
100
AcDbLine
 10
17.011005
 20
7.399154
 30
0.0
 11
16.621005
 21
7.789154
 31
0.0
  0
LINE
  5
5E2
100
AcDbEntity
  8
0
 62
     7
100
AcDbLine
 10
17.164475
 20
7.42246
 30
0.0
 11
16.797782
 21
7.789154
 31
0.0
  0
LINE
  5
5E3
100
AcDbEntity
  8
0
 62
     7
100
AcDbLine
 10
17.164475
 20
7.599237
 30
0.0
 11
16.974558
 21
7.789154
 31
0.0
  0
LINE
  5
5E4
100
AcDbEntity
  8
0
 62
     7
100
AcDbLine
 10
17.164475
 20
7.776014
 30
0.0
 11
17.151335
 21
7.789154
 31
0.0
  0
LINE
  5
5E5
100
AcDbEntity
  8
0
 62
     7
100
AcDbLine
 10
14.698475
 20
7.646442
 30
0.0
 11
14.841187
 21
7.789154
 31
0.0
  0
LINE
  5
5E6
100
AcDbEntity
  8
0
 62
     7
100
AcDbLine
 10
14.698475
 20
7.469666
 30
0.0
 11
15.017964
 21
7.789154
 31
0.0
  0
LINE
  5
5E7
100
AcDbEntity
  8
0
 62
     7
100
AcDbLine
 10
14.80474
 20
7.399154
 30
0.0
 11
15.19474
 21
7.789154
 31
0.0
  0
LINE
  5
5E8
100
AcDbEntity
  8
0
 62
     7
100
AcDbLine
 10
14.981517
 20
7.399154
 30
0.0
 11
15.371517
 21
7.789154
 31
0.0
  0
LINE
  5
5E9
100
AcDbEntity
  8
0
 62
     7
100
AcDbLine
 10
15.158294
 20
7.399154
 30
0.0
 11
15.539475
 21
7.780335
 31
0.0
  0
LINE
  5
5EA
100
AcDbEntity
  8
0
 62
     7
100
AcDbLine
 10
15.33507
 20
7.399154
 30
0.0
 11
15.539475
 21
7.603559
 31
0.0
  0
LINE
  5
5EB
100
AcDbEntity
  8
0
 62
     7
100
AcDbLine
 10
15.511847
 20
7.399154
 30
0.0
 11
15.539475
 21
7.426782
 31
0.0
  0
LINE
  5
5EC
100
AcDbEntity
  8
0
 62
     7
100
AcDbLine
 10
14.855675
 20
7.399154
 30
0.0
 11
14.698475
 21
7.556354
 31
0.0
  0
LINE
  5
5ED
100
AcDbEntity
  8
0
 62
     7
100
AcDbLine
 10
15.032451
 20
7.399154
 30
0.0
 11
14.698475
 21
7.73313
 31
0.0
  0
LINE
  5
5EE
100
AcDbEntity
  8
0
 62
     7
100
AcDbLine
 10
15.209228
 20
7.399154
 30
0.0
 11
14.819228
 21
7.789154
 31
0.0
  0
LINE
  5
5EF
100
AcDbEntity
  8
0
 62
     7
100
AcDbLine
 10
15.386005
 20
7.399154
 30
0.0
 11
14.996005
 21
7.789154
 31
0.0
  0
LINE
  5
5F0
100
AcDbEntity
  8
0
 62
     7
100
AcDbLine
 10
15.539475
 20
7.42246
 30
0.0
 11
15.172782
 21
7.789154
 31
0.0
  0
LINE
  5
5F1
100
AcDbEntity
  8
0
 62
     7
100
AcDbLine
 10
15.539475
 20
7.599237
 30
0.0
 11
15.349558
 21
7.789154
 31
0.0
  0
LINE
  5
5F2
100
AcDbEntity
  8
0
 62
     7
100
AcDbLine
 10
15.539475
 20
7.776014
 30
0.0
 11
15.526335
 21
7.789154
 31
0.0
  0
LINE
  5
5FB
100
AcDbEntity
  8
0
  6
BYBLOCK
 62
     7
100
AcDbLine
 10
17.228975
 20
9.339154
 30
0.0
 11
18.894735
 21
9.339154
 31
0.0
  0
LINE
  5
5FC
100
AcDbEntity
  8
0
  6
BYBLOCK
 62
     7
100
AcDbLine
 10
17.556975
 20
8.639154
 30
0.0
 11
18.894735
 21
8.639154
 31
0.0
  0
LINE
  5
5FD
100
AcDbEntity
  8
0
  6
BYBLOCK
 62
     7
100
AcDbLine
 10
18.714735
 20
9.519154
 30
0.0
 11
18.714735
 21
9.699154
 31
0.0
  0
LINE
  5
5FE
100
AcDbEntity
  8
0
  6
BYBLOCK
 62
     7
100
AcDbLine
 10
18.714735
 20
8.459154
 30
0.0
 11
18.714735
 21
8.279154
 31
0.0
  0
SOLID
  5
5FF
100
AcDbEntity
  8
0
  6
BYBLOCK
 62
     7
100
AcDbTrace
 10
18.684735
 20
9.519154
 30
0.0
 11
18.744735
 21
9.519154
 31
0.0
 12
18.714735
 22
9.339154
 32
0.0
 13
18.714735
 23
9.339154
 33
0.0
  0
SOLID
  5
600
100
AcDbEntity
  8
0
  6
BYBLOCK
 62
     7
100
AcDbTrace
 10
18.684735
 20
8.459154
 30
0.0
 11
18.744735
 21
8.459154
 31
0.0
 12
18.714735
 22
8.639154
 32
0.0
 13
18.714735
 23
8.639154
 33
0.0
  0
MTEXT
  5
601
100
AcDbEntity
  8
0
  6
BYBLOCK
 62
     7
100
AcDbMText
 10
18.714735
 20
8.989154
 30
0.0
 40
0.3
 41
0.0
 71
     5
 72
     1
  1
\A1;E
  0
POINT
  5
602
100
AcDbEntity
  8
DEFPOINTS
  6
BYBLOCK
 62
     7
100
AcDbPoint
 10
17.165975
 20
9.339154
 30
0.0
  0
POINT
  5
603
100
AcDbEntity
  8
DEFPOINTS
  6
BYBLOCK
 62
     7
100
AcDbPoint
 10
17.493975
 20
8.639154
 30
0.0
  0
POINT
  5
604
100
AcDbEntity
  8
DEFPOINTS
  6
BYBLOCK
 62
     7
100
AcDbPoint
 10
18.714735
 20
8.639154
 30
0.0
  0
LINE
  5
61E
100
AcDbEntity
  8
0
100
AcDbLine
 10
17.556501
 20
5.806154
 30
0.0
 11
17.556501
 21
5.256154
 31
0.0
  0
LINE
  5
621
100
AcDbEntity
  8
0
100
AcDbLine
 10
17.476501
 20
5.806154
 30
0.0
 11
17.476501
 21
5.256154
 31
0.0
  0
LINE
  5
622
100
AcDbEntity
  8
0
100
AcDbLine
 10
16.994001
 20
6.201154
 30
0.0
 11
16.994001
 21
6.036154
 31
0.0
  0
LINE
  5
623
100
AcDbEntity
  8
0
100
AcDbLine
 10
16.494001
 20
6.201154
 30
0.0
 11
16.494001
 21
6.036154
 31
0.0
  0
LINE
  5
624
100
AcDbEntity
  8
0
100
AcDbLine
 10
16.594001
 20
6.401154
 30
0.0
 11
16.594001
 21
6.201154
 31
0.0
  0
LINE
  5
625
100
AcDbEntity
  8
0
100
AcDbLine
 10
16.594001
 20
6.401154
 30
0.0
 11
16.594001
 21
6.201154
 31
0.0
  0
LINE
  5
626
100
AcDbEntity
  8
OBJ
 62
     7
100
AcDbLine
 10
16.494001
 20
6.201154
 30
0.0
 11
16.994001
 21
6.201154
 31
0.0
  0
LINE
  5
627
100
AcDbEntity
  8
0
100
AcDbLine
 10
16.894001
 20
6.401154
 30
0.0
 11
16.894001
 21
6.201154
 31
0.0
  0
LINE
  5
628
100
AcDbEntity
  8
OBJ
 62
     7
100
AcDbLine
 10
16.494001
 20
6.036154
 30
0.0
 11
16.994001
 21
6.036154
 31
0.0
  0
ELLIPSE
  5
629
100
AcDbEntity
  8
0
100
AcDbEllipse
 10
16.869001
 20
6.152304
 30
0.0
 11
-0.125
 21
0.0000000000000009
 31
0.0
210
0.0
220
0.0
230
1.0
 40
0.389208
 41
3.141592653589793
 42
6.283185307179586
  0
ELLIPSE
  5
62B
100
AcDbEntity
  8
0
100
AcDbEllipse
 10
16.619001
 20
6.152304
 30
0.0
 11
-0.125
 21
0.0000000000000009
 31
0.0
210
0.0
220
0.0
230
1.0
 40
0.389208
 41
3.141592653589793
 42
6.283185307179586
  0
ELLIPSE
  5
62C
100
AcDbEntity
  8
0
100
AcDbEllipse
 10
16.619054
 20
6.084778
 30
0.0
 11
-0.125
 21
-0.0000000000000009
 31
0.0
210
0.0
220
0.0
230
-1.0
 40
0.389208
 41
3.141592653589793
 42
6.283185307179586
  0
ELLIPSE
  5
62D
100
AcDbEntity
  8
0
100
AcDbEllipse
 10
16.869054
 20
6.084778
 30
0.0
 11
-0.125
 21
-0.0000000000000009
 31
0.0
210
0.0
220
0.0
230
-1.0
 40
0.389208
 41
3.141592653589793
 42
6.283185307179586
  0
LINE
  5
630
100
AcDbEntity
  8
0
100
AcDbLine
 10
16.984001
 20
6.036154
 30
0.0
 11
16.984001
 21
5.291154
 31
0.0
  0
LINE
  5
631
100
AcDbEntity
  8
0
100
AcDbLine
 10
16.504001
 20
6.036154
 30
0.0
 11
16.504001
 21
5.771654
 31
0.0
  0
LINE
  5
633
100
AcDbEntity
  8
0
100
AcDbLine
 10
16.879001
 20
5.666154
 30
0.0
 11
16.879001
 21
5.396154
 31
0.0
  0
LINE
  5
634
100
AcDbEntity
  8
0
100
AcDbLine
 10
16.609001
 20
5.666154
 30
0.0
 11
16.609001
 21
5.396154
 31
0.0
  0
LINE
  5
636
100
AcDbEntity
  8
0
100
AcDbLine
 10
16.984001
 20
5.291154
 30
0.0
 11
16.879001
 21
5.396154
 31
0.0
  0
LINE
  5
638
100
AcDbEntity
  8
0
100
AcDbLine
 10
16.609001
 20
5.666154
 30
0.0
 11
16.879001
 21
5.666154
 31
0.0
  0
LINE
  5
63A
100
AcDbEntity
  8
0
100
AcDbLine
 10
16.984001
 20
5.291154
 30
0.0
 11
17.431501
 21
5.291154
 31
0.0
  0
LINE
  5
63D
100
AcDbEntity
  8
0
100
AcDbLine
 10
16.609001
 20
5.396154
 30
0.0
 11
16.879001
 21
5.396154
 31
0.0
  0
LINE
  5
63E
100
AcDbEntity
  8
0
100
AcDbLine
 10
16.594001
 20
6.201154
 30
0.0
 11
16.894001
 21
6.224247
 31
0.0
  0
LINE
  5
63F
100
AcDbEntity
  8
0
100
AcDbLine
 10
16.594001
 20
6.236258
 30
0.0
 11
16.894001
 21
6.259351
 31
0.0
  0
LINE
  5
640
100
AcDbEntity
  8
0
100
AcDbLine
 10
16.594001
 20
6.271361
 30
0.0
 11
16.894001
 21
6.294454
 31
0.0
  0
LINE
  5
641
100
AcDbEntity
  8
0
100
AcDbLine
 10
16.594001
 20
6.306465
 30
0.0
 11
16.894001
 21
6.329558
 31
0.0
  0
LINE
  5
642
100
AcDbEntity
  8
0
100
AcDbLine
 10
16.594001
 20
6.341568
 30
0.0
 11
16.894001
 21
6.364661
 31
0.0
  0
LINE
  5
643
100
AcDbEntity
  8
0
100
AcDbLine
 10
16.594001
 20
6.376672
 30
0.0
 11
16.894001
 21
6.399765
 31
0.0
  0
LINE
  5
644
100
AcDbEntity
  8
0
100
AcDbLine
 10
17.431501
 20
5.771154
 30
0.0
 11
17.431501
 21
5.291154
 31
0.0
  0
LINE
  5
64B
100
AcDbEntity
  8
OBJ
 62
     7
100
AcDbLine
 10
17.476501
 20
5.806154
 30
0.0
 11
17.556501
 21
5.806154
 31
0.0
  0
LINE
  5
64C
100
AcDbEntity
  8
0
100
AcDbLine
 10
17.476501
 20
5.256154
 30
0.0
 11
17.556501
 21
5.256154
 31
0.0
  0
LINE
  5
64F
100
AcDbEntity
  8
0
100
AcDbLine
 10
16.744001
 20
6.152304
 30
0.0
 11
16.744054
 21
6.084778
 31
0.0
  0
LINE
  5
653
100
AcDbEntity
  8
0
100
AcDbLine
 10
16.616072
 20
5.666154
 30
0.0
 11
16.511072
 21
5.771154
 31
0.0
  0
LINE
  5
654
100
AcDbEntity
  8
0
100
AcDbLine
 10
16.609001
 20
5.659083
 30
0.0
 11
16.504001
 21
5.764083
 31
0.0
  0
LINE
  5
655
100
AcDbEntity
  8
0
100
AcDbLine
 10
16.97693
 20
5.771154
 30
0.0
 11
16.87193
 21
5.666154
 31
0.0
  0
LINE
  5
656
100
AcDbEntity
  8
0
100
AcDbLine
 10
16.984001
 20
5.764083
 30
0.0
 11
16.879001
 21
5.659083
 31
0.0
  0
LINE
  5
666
100
AcDbEntity
  8
0
  6
BYBLOCK
 62
     0
100
AcDbLine
 10
17.556975
 20
9.639154
 30
0.0
 11
20.237713
 21
9.639154
 31
0.0
  0
LINE
  5
667
100
AcDbEntity
  8
0
  6
BYBLOCK
 62
     0
100
AcDbLine
 10
17.619501
 20
5.256154
 30
0.0
 11
20.237713
 21
5.256154
 31
0.0
  0
LINE
  5
668
100
AcDbEntity
  8
0
  6
BYBLOCK
 62
     0
100
AcDbLine
 10
20.057713
 20
9.459154
 30
0.0
 11
20.057713
 21
7.627654
 31
0.0
  0
LINE
  5
669
100
AcDbEntity
  8
0
  6
BYBLOCK
 62
     0
100
AcDbLine
 10
20.057713
 20
5.436154
 30
0.0
 11
20.057713
 21
7.267654
 31
0.0
  0
SOLID
  5
66A
100
AcDbEntity
  8
0
  6
BYBLOCK
 62
     0
100
AcDbTrace
 10
20.027713
 20
9.459154
 30
0.0
 11
20.087713
 21
9.459154
 31
0.0
 12
20.057713
 22
9.639154
 32
0.0
 13
20.057713
 23
9.639154
 33
0.0
  0
SOLID
  5
66B
100
AcDbEntity
  8
0
  6
BYBLOCK
 62
     0
100
AcDbTrace
 10
20.027713
 20
5.436154
 30
0.0
 11
20.087713
 21
5.436154
 31
0.0
 12
20.057713
 22
5.256154
 32
0.0
 13
20.057713
 23
5.256154
 33
0.0
  0
MTEXT
  5
66C
100
AcDbEntity
  8
0
  6
BYBLOCK
 62
     0
100
AcDbMText
 10
20.057713
 20
7.472019
 30
0.0
 40
0.36
 41
0.0
 71
     5
 72
     1
  1
\A1;M
  0
POINT
  5
66D
100
AcDbEntity
  8
DEFPOINTS
  6
BYBLOCK
 62
     0
100
AcDbPoint
 10
17.493975
 20
9.639154
 30
0.0
  0
POINT
  5
66E
100
AcDbEntity
  8
DEFPOINTS
  6
BYBLOCK
 62
     0
100
AcDbPoint
 10
17.556501
 20
5.256154
 30
0.0
  0
POINT
  5
66F
100
AcDbEntity
  8
DEFPOINTS
  6
BYBLOCK
 62
     0
100
AcDbPoint
 10
20.057713
 20
5.256154
 30
0.0
  0
LINE
  5
670
100
AcDbEntity
  8
0
100
AcDbLine
 10
11.082865
 20
9.27649
 30
0.0
 11
11.105958
 21
8.97649
 31
0.0
  0
LINE
  5
671
100
AcDbEntity
  8
0
100
AcDbLine
 10
10.742347
 20
8.88649
 30
0.0
 11
9.997347
 21
8.88649
 31
0.0
  0
LINE
  5
672
100
AcDbEntity
  8
0
100
AcDbLine
 10
10.742347
 20
9.36649
 30
0.0
 11
9.997347
 21
9.36649
 31
0.0
  0
LINE
  5
673
100
AcDbEntity
  8
0
100
AcDbLine
 10
10.942451
 20
9.27649
 30
0.0
 11
10.965544
 21
8.97649
 31
0.0
  0
LINE
  5
674
100
AcDbEntity
  8
0
100
AcDbLine
 10
10.977554
 20
9.27649
 30
0.0
 11
11.000647
 21
8.97649
 31
0.0
  0
LINE
  5
675
100
AcDbEntity
  8
0
100
AcDbLine
 10
11.012658
 20
9.27649
 30
0.0
 11
11.035751
 21
8.97649
 31
0.0
  0
LINE
  5
676
100
AcDbEntity
  8
0
100
AcDbLine
 10
11.047761
 20
9.27649
 30
0.0
 11
11.070855
 21
8.97649
 31
0.0
  0
LINE
  5
677
100
AcDbEntity
  8
0
100
AcDbLine
 10
10.907347
 20
9.27649
 30
0.0
 11
10.93044
 21
8.97649
 31
0.0
  0
ELLIPSE
  5
678
100
AcDbEntity
  8
0
100
AcDbEllipse
 10
10.790971
 20
9.251437
 30
0.0
 11
-0.0000000000000009
 21
0.125
 31
0.0
210
0.0
220
0.0
230
-1.0
 40
0.389208
 41
3.141592653589793
 42
6.283185307179586
  0
ELLIPSE
  5
679
100
AcDbEntity
  8
0
100
AcDbEllipse
 10
10.858498
 20
9.25149
 30
0.0
 11
0.0000000000000009
 21
0.125
 31
0.0
210
0.0
220
0.0
230
1.0
 40
0.389208
 41
3.141592653589793
 42
6.283185307179586
  0
LINE
  5
67A
100
AcDbEntity
  8
OBJ
 62
     7
100
AcDbLine
 10
10.742347
 20
9.37649
 30
0.0
 11
10.742347
 21
8.87649
 31
0.0
  0
LINE
  5
67B
100
AcDbEntity
  8
OBJ
 62
     7
100
AcDbLine
 10
10.907347
 20
9.37649
 30
0.0
 11
10.907347
 21
8.87649
 31
0.0
  0
LINE
  5
67C
100
AcDbEntity
  8
0
100
AcDbLine
 10
11.107347
 20
9.27649
 30
0.0
 11
10.907347
 21
9.27649
 31
0.0
  0
LINE
  5
67D
100
AcDbEntity
  8
0
100
AcDbLine
 10
11.107347
 20
9.27649
 30
0.0
 11
10.907347
 21
9.27649
 31
0.0
  0
LINE
  5
67E
100
AcDbEntity
  8
0
100
AcDbLine
 10
10.907347
 20
9.37649
 30
0.0
 11
10.742347
 21
9.37649
 31
0.0
  0
LINE
  5
67F
100
AcDbEntity
  8
0
100
AcDbLine
 10
11.107347
 20
8.97649
 30
0.0
 11
10.907347
 21
8.97649
 31
0.0
  0
ELLIPSE
  5
680
100
AcDbEntity
  8
0
100
AcDbEllipse
 10
10.790971
 20
9.001437
 30
0.0
 11
-0.0000000000000009
 21
0.125
 31
0.0
210
0.0
220
0.0
230
-1.0
 40
0.389208
 41
3.141592653589793
 42
6.283185307179586
  0
ELLIPSE
  5
681
100
AcDbEntity
  8
0
100
AcDbEllipse
 10
10.858498
 20
9.00149
 30
0.0
 11
0.0000000000000009
 21
0.125
 31
0.0
210
0.0
220
0.0
230
1.0
 40
0.389208
 41
3.141592653589793
 42
6.283185307179586
  0
LINE
  5
682
100
AcDbEntity
  8
0
100
AcDbLine
 10
10.858498
 20
9.12649
 30
0.0
 11
10.790971
 21
9.126437
 31
0.0
  0
LINE
  5
683
100
AcDbEntity
  8
0
100
AcDbLine
 10
10.907347
 20
8.87649
 30
0.0
 11
10.742347
 21
8.87649
 31
0.0
  0
LINE
  5
684
100
AcDbEntity
  8
0
100
AcDbLine
 10
10.477347
 20
8.43899
 30
0.0
 11
9.997347
 21
8.43899
 31
0.0
  0
LINE
  5
685
100
AcDbEntity
  8
0
100
AcDbLine
 10
10.477347
 20
9.81399
 30
0.0
 11
9.997347
 21
9.81399
 31
0.0
  0
LINE
  5
686
100
AcDbEntity
  8
0
100
AcDbLine
 10
10.512347
 20
8.39399
 30
0.0
 11
9.962347
 21
8.39399
 31
0.0
  0
LINE
  5
687
100
AcDbEntity
  8
0
100
AcDbLine
 10
10.512347
 20
8.31399
 30
0.0
 11
9.962347
 21
8.31399
 31
0.0
  0
LINE
  5
688
100
AcDbEntity
  8
0
100
AcDbLine
 10
10.512347
 20
9.93899
 30
0.0
 11
9.962347
 21
9.93899
 31
0.0
  0
LINE
  5
689
100
AcDbEntity
  8
0
100
AcDbLine
 10
10.512347
 20
9.85899
 30
0.0
 11
9.962347
 21
9.85899
 31
0.0
  0
LINE
  5
68A
100
AcDbEntity
  8
0
100
AcDbLine
 10
10.372347
 20
9.26149
 30
0.0
 11
10.102347
 21
9.26149
 31
0.0
  0
LINE
  5
68B
100
AcDbEntity
  8
0
100
AcDbLine
 10
10.372347
 20
8.99149
 30
0.0
 11
10.102347
 21
8.99149
 31
0.0
  0
LINE
  5
68C
100
AcDbEntity
  8
0
100
AcDbLine
 10
10.102347
 20
9.26149
 30
0.0
 11
10.102347
 21
8.99149
 31
0.0
  0
LINE
  5
68D
100
AcDbEntity
  8
0
100
AcDbLine
 10
10.102347
 20
9.26149
 30
0.0
 11
9.997347
 21
9.36649
 31
0.0
  0
LINE
  5
68E
100
AcDbEntity
  8
0
100
AcDbLine
 10
9.997347
 20
8.88649
 30
0.0
 11
10.102347
 21
8.99149
 31
0.0
  0
LINE
  5
68F
100
AcDbEntity
  8
0
100
AcDbLine
 10
10.573175
 20
8.88649
 30
0.0
 11
10.477347
 21
8.790662
 31
0.0
  0
LINE
  5
690
100
AcDbEntity
  8
OBJ
 62
     7
100
AcDbLine
 10
10.477347
 20
9.81399
 30
0.0
 11
10.477347
 21
8.43899
 31
0.0
  0
LINE
  5
691
100
AcDbEntity
  8
OBJ
 62
     7
100
AcDbLine
 10
10.512347
 20
9.93899
 30
0.0
 11
10.512347
 21
9.85899
 31
0.0
  0
LINE
  5
692
100
AcDbEntity
  8
0
100
AcDbLine
 10
10.372347
 20
9.26149
 30
0.0
 11
10.372347
 21
8.99149
 31
0.0
  0
LINE
  5
693
100
AcDbEntity
  8
0
100
AcDbLine
 10
10.573069
 20
9.36649
 30
0.0
 11
10.477347
 21
9.462212
 31
0.0
  0
LINE
  5
694
100
AcDbEntity
  8
0
100
AcDbLine
 10
10.365276
 20
9.26149
 30
0.0
 11
10.470276
 21
9.36649
 31
0.0
  0
LINE
  5
695
100
AcDbEntity
  8
0
100
AcDbLine
 10
10.372347
 20
9.254419
 30
0.0
 11
10.477347
 21
9.359419
 31
0.0
  0
LINE
  5
696
100
AcDbEntity
  8
0
100
AcDbLine
 10
10.477347
 20
8.893561
 30
0.0
 11
10.372347
 21
8.998561
 31
0.0
  0
LINE
  5
697
100
AcDbEntity
  8
0
100
AcDbLine
 10
10.470276
 20
8.88649
 30
0.0
 11
10.365276
 21
8.99149
 31
0.0
  0
LINE
  5
698
100
AcDbEntity
  8
OBJ
 62
     7
100
AcDbLine
 10
10.512347
 20
8.39399
 30
0.0
 11
10.512347
 21
8.31399
 31
0.0
  0
LINE
  5
699
100
AcDbEntity
  8
0
100
AcDbLine
 10
9.962347
 20
8.39399
 30
0.0
 11
9.962347
 21
8.31399
 31
0.0
  0
LINE
  5
69A
100
AcDbEntity
  8
0
100
AcDbLine
 10
9.997347
 20
8.88649
 30
0.0
 11
9.997347
 21
8.43899
 31
0.0
  0
LINE
  5
69B
100
AcDbEntity
  8
0
100
AcDbLine
 10
9.997347
 20
9.36649
 30
0.0
 11
9.997347
 21
9.81399
 31
0.0
  0
LINE
  5
69C
100
AcDbEntity
  8
0
100
AcDbLine
 10
9.962347
 20
9.85899
 30
0.0
 11
9.962347
 21
9.93899
 31
0.0
  0
LINE
  5
6AC
100
AcDbEntity
  8
0
  6
BYBLOCK
 62
     0
100
AcDbLine
 10
17.493975
 20
10.646697
 30
0.0
 11
17.493975
 21
11.248233
 31
0.0
  0
LINE
  5
6AD
100
AcDbEntity
  8
0
  6
BYBLOCK
 62
     0
100
AcDbLine
 10
9.962347
 20
10.00199
 30
0.0
 11
9.962347
 21
11.248233
 31
0.0
  0
LINE
  5
6AE
100
AcDbEntity
  8
0
  6
BYBLOCK
 62
     0
100
AcDbLine
 10
17.313975
 20
11.068233
 30
0.0
 11
13.878161
 21
11.068233
 31
0.0
  0
LINE
  5
6AF
100
AcDbEntity
  8
0
  6
BYBLOCK
 62
     0
100
AcDbLine
 10
10.142347
 20
11.068233
 30
0.0
 11
13.578161
 21
11.068233
 31
0.0
  0
SOLID
  5
6B0
100
AcDbEntity
  8
0
  6
BYBLOCK
 62
     0
100
AcDbTrace
 10
17.313975
 20
11.098233
 30
0.0
 11
17.313975
 21
11.038233
 31
0.0
 12
17.493975
 22
11.068233
 32
0.0
 13
17.493975
 23
11.068233
 33
0.0
  0
SOLID
  5
6B1
100
AcDbEntity
  8
0
  6
BYBLOCK
 62
     0
100
AcDbTrace
 10
10.142347
 20
11.098233
 30
0.0
 11
10.142347
 21
11.038233
 31
0.0
 12
9.962347
 22
11.068233
 32
0.0
 13
9.962347
 23
11.068233
 33
0.0
  0
MTEXT
  5
6B2
100
AcDbEntity
  8
0
  6
BYBLOCK
 62
     0
100
AcDbMText
 10
13.735846
 20
11.068233
 30
0.0
 40
0.36
 41
0.0
 71
     5
 72
     1
  1
\A1;N
  0
POINT
  5
6B3
100
AcDbEntity
  8
DEFPOINTS
  6
BYBLOCK
 62
     0
100
AcDbPoint
 10
17.493975
 20
10.583697
 30
0.0
  0
POINT
  5
6B4
100
AcDbEntity
  8
DEFPOINTS
  6
BYBLOCK
 62
     0
100
AcDbPoint
 10
9.962347
 20
9.93899
 30
0.0
  0
POINT
  5
6B5
100
AcDbEntity
  8
DEFPOINTS
  6
BYBLOCK
 62
     0
100
AcDbPoint
 10
9.962347
 20
11.068233
 30
0.0
  0
LEADER
  5
6B6
100
AcDbEntity
  8
0
100
AcDbLeader
  3
FTI
 73
     0
 75
     1
 40
0.48
 41
1.68
 76
     3
 10
10.22537
 20
8.31399
 30
0.0
 10
9.512357
 20
7.418705
 30
0.0
 10
9.332357
 20
7.418705
 30
0.0
 77
   256
340
6B7
  0
MTEXT
  5
6B7
102
{ACAD_REACTORS
330
6B6
102
}
100
AcDbEntity
  8
0
100
AcDbMText
 10
9.242357
 20
7.418705
 30
0.0
 40
0.18
 41
0.0
 71
     6
 72
     1
  1
1/4" (6 mm)\PAIR TUBING   
  0
LINE
  5
6D6
100
AcDbEntity
  8
0
  6
BYBLOCK
 62
     0
100
AcDbLine
 10
11.055975
 20
9.639154
 30
0.0
 11
9.088842
 21
9.639154
 31
0.0
  0
LINE
  5
6D7
100
AcDbEntity
  8
0
  6
BYBLOCK
 62
     0
100
AcDbLine
 10
10.449347
 20
9.93899
 30
0.0
 11
9.088842
 21
9.93899
 31
0.0
  0
LINE
  5
6D8
100
AcDbEntity
  8
0
  6
BYBLOCK
 62
     0
100
AcDbLine
 10
9.268842
 20
9.459154
 30
0.0
 11
9.268842
 21
9.279154
 31
0.0
  0
LINE
  5
6D9
100
AcDbEntity
  8
0
  6
BYBLOCK
 62
     0
100
AcDbLine
 10
9.268842
 20
10.11899
 30
0.0
 11
9.268842
 21
10.29899
 31
0.0
  0
MTEXT
  5
6DA
100
AcDbEntity
  8
0
  6
BYBLOCK
 62
     0
100
AcDbMText
 10
9.303044
 20
10.522456
 30
0.0
 40
0.36
 41
0.0
 71
     5
 72
     1
  1
\A1;P
  0
SOLID
  5
6DC
100
AcDbEntity
  8
0
  6
BYBLOCK
 62
     0
100
AcDbTrace
 10
9.238842
 20
9.459154
 30
0.0
 11
9.298842
 21
9.459154
 31
0.0
 12
9.268842
 22
9.639154
 32
0.0
 13
9.268842
 23
9.639154
 33
0.0
  0
SOLID
  5
6DD
100
AcDbEntity
  8
0
  6
BYBLOCK
 62
     0
100
AcDbTrace
 10
9.238842
 20
10.11899
 30
0.0
 11
9.298842
 21
10.11899
 31
0.0
 12
9.268842
 22
9.93899
 32
0.0
 13
9.268842
 23
9.93899
 33
0.0
  0
POINT
  5
6DE
100
AcDbEntity
  8
DEFPOINTS
  6
BYBLOCK
 62
     0
100
AcDbPoint
 10
11.118975
 20
9.639154
 30
0.0
  0
POINT
  5
6DF
100
AcDbEntity
  8
DEFPOINTS
  6
BYBLOCK
 62
     0
100
AcDbPoint
 10
10.512347
 20
9.93899
 30
0.0
  0
POINT
  5
6E0
100
AcDbEntity
  8
DEFPOINTS
  6
BYBLOCK
 62
     0
100
AcDbPoint
 10
9.268842
 20
9.93899
 30
0.0
  0
MTEXT
  5
703
100
AcDbEntity
  8
0
100
AcDbMText
 10
7.031901
 20
8.94962
 30
0.0
 40
0.2
 41
0.0
 71
     1
 72
     5
  1
\Fromans.shx;L
  0
LINE
  5
70D
100
AcDbEntity
  8
OBJ
 62
     7
100
AcDbLine
 10
16.504002
 20
5.771154
 30
0.0
 11
17.431501
 21
5.771154
 31
0.0
  0
MTEXT
  5
71E
100
AcDbEntity
  8
0
100
AcDbMText
 10
19.523891
 20
7.418705
 30
0.0
 40
0.18
 41
0.0
 71
     6
 72
     1
  1
1/4" (6 mm)\PAIR TUBING   
  0
LEADER
  5
71F
100
AcDbEntity
  8
0
100
AcDbLeader
  3
FTI
 76
     3
 10
17.546452
 20
5.556367
 30
0.0
 10
18.607968
 20
6.041314
 30
0.0
 10
18.607968
 20
7.041517
 30
0.0
 77
   256
  0
ENDSEC
  0
SECTION
  2
OBJECTS
  0
DICTIONARY
  5
C
100
AcDbDictionary
  3
ACAD_GROUP
350
D
  3
ACAD_MLINESTYLE
350
1A
  3
ACDBVARIABLEDICTIONARY
350
5E
  0
DICTIONARY
  5
D
102
{ACAD_REACTORS
330
C
102
}
100
AcDbDictionary
  0
DICTIONARY
  5
1A
102
{ACAD_REACTORS
330
C
102
}
100
AcDbDictionary
  3
STANDARD
350
1B
  0
DICTIONARY
  5
5E
102
{ACAD_REACTORS
330
C
102
}
100
AcDbDictionary
  3
DIMADEC
350
5F
  3
SORTENTS
350
45F
  0
MLINESTYLE
  5
1B
102
{ACAD_REACTORS
330
1A
102
}
100
AcDbMlineStyle
  2
STANDARD
 70
     0
  3

 62
   256
 51
90.0
 52
90.0
 71
     2
 49
0.5
 62
   256
  6
BYLAYER
 49
-0.5
 62
   256
  6
BYLAYER
  0
DICTIONARYVAR
  5
5F
102
{ACAD_REACTORS
330
5E
102
}
100
DictionaryVariables
280
     0
  1
0
  0
DICTIONARYVAR
  5
45F
102
{ACAD_REACTORS
330
5E
102
}
100
DictionaryVariables
280
     0
  1
96
  0
ENDSEC
  0
EOF
